  0
SECTION
  2
HEADER
  9
$ACADVER
  1
AC1015
  9
$ACADMAINTVER
 70
     6
  9
$DWGCODEPAGE
  3
ANSI_1252
  9
$INSBASE
 10
0.0
 20
0.0
 30
0.0
  9
$EXTMIN
 10
-0.5293421938208667
 20
23.18392253921118
 30
-0.00000001
  9
$EXTMAX
 10
91.61658781083154
 20
51.94726074384611
 30
0.00000001
  9
$LIMMIN
 10
0.0
 20
0.0
  9
$LIMMAX
 10
11.0
 20
8.5
  9
$ORTHOMODE
 70
     1
  9
$REGENMODE
 70
     1
  9
$FILLMODE
 70
     1
  9
$QTEXTMODE
 70
     0
  9
$MIRRTEXT
 70
     1
  9
$LTSCALE
 40
1.0
  9
$ATTMODE
 70
     1
  9
$TEXTSIZE
 40
0.2
  9
$TRACEWID
 40
0.05
  9
$TEXTSTYLE
  7
Standard
  9
$CLAYER
  8
0
  9
$CELTYPE
  6
ByLayer
  9
$CECOLOR
 62
   256
  9
$CELTSCALE
 40
1.0
  9
$DISPSILH
 70
     0
  9
$DIMSCALE
 40
1.0
  9
$DIMASZ
 40
0.09
  9
$DIMEXO
 40
0.05
  9
$DIMDLI
 40
0.38
  9
$DIMRND
 40
0.0
  9
$DIMDLE
 40
0.0
  9
$DIMEXE
 40
0.0625
  9
$DIMTP
 40
0.0
  9
$DIMTM
 40
0.0
  9
$DIMTXT
 40
0.1666666666666666
  9
$DIMCEN
 40
0.09
  9
$DIMTSZ
 40
0.0
  9
$DIMTOL
 70
     0
  9
$DIMLIM
 70
     0
  9
$DIMTIH
 70
     1
  9
$DIMTOH
 70
     1
  9
$DIMSE1
 70
     0
  9
$DIMSE2
 70
     0
  9
$DIMTAD
 70
     0
  9
$DIMZIN
 70
     0
  9
$DIMBLK
  1

  9
$DIMASO
 70
     1
  9
$DIMSHO
 70
     1
  9
$DIMPOST
  1

  9
$DIMAPOST
  1

  9
$DIMALT
 70
     0
  9
$DIMALTD
 70
     2
  9
$DIMALTF
 40
25.4
  9
$DIMLFAC
 40
1.0
  9
$DIMTOFL
 70
     0
  9
$DIMTVP
 40
0.0
  9
$DIMTIX
 70
     0
  9
$DIMSOXD
 70
     0
  9
$DIMSAH
 70
     0
  9
$DIMBLK1
  1

  9
$DIMBLK2
  1

  9
$DIMSTYLE
  2
Standard
  9
$DIMCLRD
 70
     0
  9
$DIMCLRE
 70
     0
  9
$DIMCLRT
 70
     0
  9
$DIMTFAC
 40
1.0
  9
$DIMGAP
 40
0.06
  9
$DIMJUST
 70
     0
  9
$DIMSD1
 70
     0
  9
$DIMSD2
 70
     0
  9
$DIMTOLJ
 70
     1
  9
$DIMTZIN
 70
     0
  9
$DIMALTZ
 70
     0
  9
$DIMALTTZ
 70
     0
  9
$DIMUPT
 70
     0
  9
$DIMDEC
 70
     4
  9
$DIMTDEC
 70
     4
  9
$DIMALTU
 70
     2
  9
$DIMALTTD
 70
     2
  9
$DIMTXSTY
  7
Standard
  9
$DIMAUNIT
 70
     0
  9
$DIMADEC
 70
     0
  9
$DIMALTRND
 40
0.0
  9
$DIMAZIN
 70
     0
  9
$DIMDSEP
 70
    46
  9
$DIMATFIT
 70
     3
  9
$DIMFRAC
 70
     0
  9
$DIMLDRBLK
  1

  9
$DIMLUNIT
 70
     2
  9
$DIMLWD
 70
    -2
  9
$DIMLWE
 70
    -2
  9
$DIMTMOVE
 70
     0
  9
$LUNITS
 70
     2
  9
$LUPREC
 70
     3
  9
$SKETCHINC
 40
0.1
  9
$FILLETRAD
 40
0.5
  9
$AUNITS
 70
     0
  9
$AUPREC
 70
     0
  9
$MENU
  1
.
  9
$ELEVATION
 40
0.0
  9
$PELEVATION
 40
0.0
  9
$THICKNESS
 40
0.0
  9
$LIMCHECK
 70
     0
  9
$CHAMFERA
 40
0.5
  9
$CHAMFERB
 40
0.5
  9
$CHAMFERC
 40
1.0
  9
$CHAMFERD
 40
0.0
  9
$SKPOLY
 70
     0
  9
$TDCREATE
 40
2454712.628387812
  9
$TDUCREATE
 40
2454712.836721146
  9
$TDUPDATE
 40
2454718.442692858
  9
$TDUUPDATE
 40
2454718.651026192
  9
$TDINDWG
 40
1.9308859838
  9
$TDUSRTIMER
 40
1.9308859838
  9
$USRTIMER
 70
     1
  9
$ANGBASE
 50
0.0
  9
$ANGDIR
 70
     0
  9
$PDMODE
 70
     0
  9
$PDSIZE
 40
-1.0
  9
$PLINEWID
 40
0.0
  9
$SPLFRAME
 70
     0
  9
$SPLINETYPE
 70
     6
  9
$SPLINESEGS
 70
     8
  9
$HANDSEED
  5
811
  9
$SURFTAB1
 70
     6
  9
$SURFTAB2
 70
     6
  9
$SURFTYPE
 70
     6
  9
$SURFU
 70
     6
  9
$SURFV
 70
     6
  9
$UCSBASE
  2

  9
$UCSNAME
  2

  9
$UCSORG
 10
0.0
 20
0.0
 30
0.0
  9
$UCSXDIR
 10
1.0
 20
0.0
 30
0.0
  9
$UCSYDIR
 10
0.0
 20
1.0
 30
0.0
  9
$UCSORTHOREF
  2

  9
$UCSORTHOVIEW
 70
     0
  9
$UCSORGTOP
 10
0.0
 20
0.0
 30
0.0
  9
$UCSORGBOTTOM
 10
0.0
 20
0.0
 30
0.0
  9
$UCSORGLEFT
 10
0.0
 20
0.0
 30
0.0
  9
$UCSORGRIGHT
 10
0.0
 20
0.0
 30
0.0
  9
$UCSORGFRONT
 10
0.0
 20
0.0
 30
0.0
  9
$UCSORGBACK
 10
0.0
 20
0.0
 30
0.0
  9
$PUCSBASE
  2

  9
$PUCSNAME
  2

  9
$PUCSORG
 10
0.0
 20
0.0
 30
0.0
  9
$PUCSXDIR
 10
1.0
 20
0.0
 30
0.0
  9
$PUCSYDIR
 10
0.0
 20
1.0
 30
0.0
  9
$PUCSORTHOREF
  2

  9
$PUCSORTHOVIEW
 70
     0
  9
$PUCSORGTOP
 10
0.0
 20
0.0
 30
0.0
  9
$PUCSORGBOTTOM
 10
0.0
 20
0.0
 30
0.0
  9
$PUCSORGLEFT
 10
0.0
 20
0.0
 30
0.0
  9
$PUCSORGRIGHT
 10
0.0
 20
0.0
 30
0.0
  9
$PUCSORGFRONT
 10
0.0
 20
0.0
 30
0.0
  9
$PUCSORGBACK
 10
0.0
 20
0.0
 30
0.0
  9
$USERI1
 70
     0
  9
$USERI2
 70
     0
  9
$USERI3
 70
     0
  9
$USERI4
 70
     0
  9
$USERI5
 70
     0
  9
$USERR1
 40
0.0
  9
$USERR2
 40
0.0
  9
$USERR3
 40
0.0
  9
$USERR4
 40
0.0
  9
$USERR5
 40
0.0
  9
$WORLDVIEW
 70
     1
  9
$SHADEDGE
 70
     3
  9
$SHADEDIF
 70
    70
  9
$TILEMODE
 70
     1
  9
$MAXACTVP
 70
    64
  9
$PINSBASE
 10
0.0
 20
0.0
 30
0.0
  9
$PLIMCHECK
 70
     0
  9
$PEXTMIN
 10
1.000000000000000E+20
 20
1.000000000000000E+20
 30
1.000000000000000E+20
  9
$PEXTMAX
 10
-1.000000000000000E+20
 20
-1.000000000000000E+20
 30
-1.000000000000000E+20
  9
$PLIMMIN
 10
0.0
 20
0.0
  9
$PLIMMAX
 10
12.0
 20
9.0
  9
$UNITMODE
 70
     0
  9
$VISRETAIN
 70
     1
  9
$PLINEGEN
 70
     0
  9
$PSLTSCALE
 70
     1
  9
$TREEDEPTH
 70
  3020
  9
$CMLSTYLE
  2
Standard
  9
$CMLJUST
 70
     0
  9
$CMLSCALE
 40
1.0
  9
$PROXYGRAPHICS
 70
     1
  9
$MEASUREMENT
 70
     0
  9
$CELWEIGHT
370
    -1
  9
$ENDCAPS
280
     0
  9
$JOINSTYLE
280
     0
  9
$LWDISPLAY
290
     1
  9
$INSUNITS
 70
     1
  9
$HYPERLINKBASE
  1

  9
$STYLESHEET
  1

  9
$XEDIT
290
     1
  9
$CEPSNTYPE
380
     0
  9
$PSTYLEMODE
290
     1
  9
$FINGERPRINTGUID
  2
{BF7A34CB-AB29-4945-85FB-B3BFACE43545}
  9
$VERSIONGUID
  2
{787E6C72-21E3-40A6-906D-7FD28A25F9D0}
  9
$EXTNAMES
290
     1
  9
$PSVPSCALE
 40
0.0
  9
$OLESTARTUP
290
     0
  0
ENDSEC
  0
SECTION
  2
CLASSES
  0
CLASS
  1
ACDBDICTIONARYWDFLT
  2
AcDbDictionaryWithDefault
  3
AutoCAD 2000
 90
        0
280
     0
281
     0
  0
CLASS
  1
VISUALSTYLE
  2
AcDbVisualStyle
  3
ObjectDBX Classes
 90
     4095
280
     0
281
     0
  0
CLASS
  1
SCALE
  2
AcDbScale
  3
ObjectDBX Classes
 90
     1153
280
     0
281
     0
  0
CLASS
  1
DICTIONARYVAR
  2
AcDbDictionaryVar
  3
AutoCAD 2000
 90
        0
280
     0
281
     0
  0
CLASS
  1
ACDBPLACEHOLDER
  2
AcDbPlaceHolder
  3
AutoCAD 2000
 90
        0
280
     0
281
     0
  0
CLASS
  1
LAYOUT
  2
AcDbLayout
  3
AutoCAD 2000
 90
        0
280
     0
281
     0
  0
ENDSEC
  0
SECTION
  2
TABLES
  0
TABLE
  2
VPORT
  5
8
330
0
100
AcDbSymbolTable
 70
     2
  0
VPORT
  5
810
330
8
100
AcDbSymbolTableRecord
100
AcDbViewportTableRecord
  2
*Active
 70
     0
 10
0.0
 20
0.0
 11
1.0
 21
1.0
 12
45.54650255190668
 22
37.56721295487564
 13
0.0
 23
0.0
 14
0.5
 24
0.5
 15
0.5
 25
0.5
 16
0.0
 26
0.0
 36
1.0
 17
0.0
 27
0.0
 37
0.0
 40
52.26204407297691
 41
1.775280898876404
 42
50.0
 43
0.0
 44
0.0
 50
0.0
 51
0.0
 71
     0
 72
  2000
 73
     1
 74
     3
 75
     0
 76
     1
 77
     0
 78
     0
281
     0
 65
     1
110
0.0
120
0.0
130
0.0
111
1.0
121
0.0
131
0.0
112
0.0
122
1.0
132
0.0
 79
     0
146
0.0
  0
ENDTAB
  0
TABLE
  2
LTYPE
  5
5
330
0
100
AcDbSymbolTable
 70
     6
  0
LTYPE
  5
14
330
5
100
AcDbSymbolTableRecord
100
AcDbLinetypeTableRecord
  2
ByBlock
 70
     0
  3

 72
    65
 73
     0
 40
0.0
  0
LTYPE
  5
15
330
5
100
AcDbSymbolTableRecord
100
AcDbLinetypeTableRecord
  2
ByLayer
 70
     0
  3

 72
    65
 73
     0
 40
0.0
  0
LTYPE
  5
16
330
5
100
AcDbSymbolTableRecord
100
AcDbLinetypeTableRecord
  2
Continuous
 70
     0
  3
Solid line
 72
    65
 73
     0
 40
0.0
  0
LTYPE
  5
5D
330
5
100
AcDbSymbolTableRecord
100
AcDbLinetypeTableRecord
  2
HIDDEN
 70
     0
  3
Hidden __ __ __ __ __ __ __ __ __ __ __ __ __ __
 72
    65
 73
     2
 40
0.075
 49
0.05
 74
     0
 49
-0.025
 74
     0
  0
LTYPE
  5
5E
330
5
100
AcDbSymbolTableRecord
100
AcDbLinetypeTableRecord
  2
PHANTOM
 70
     0
  3
Phantom ______  __  __  ______  __  __  ______
 72
    65
 73
     6
 40
0.5
 49
0.25
 74
     0
 49
-0.05
 74
     0
 49
0.05
 74
     0
 49
-0.05
 74
     0
 49
0.05
 74
     0
 49
-0.05
 74
     0
  0
LTYPE
  5
5F
330
5
100
AcDbSymbolTableRecord
100
AcDbLinetypeTableRecord
  2
CENTER
 70
     0
  3
Center ____ _ ____ _ ____ _ ____ _ ____ _ ____
 72
    65
 73
     4
 40
0.4
 49
0.25
 74
     0
 49
-0.05
 74
     0
 49
0.05
 74
     0
 49
-0.05
 74
     0
  0
LTYPE
  5
60
330
5
100
AcDbSymbolTableRecord
100
AcDbLinetypeTableRecord
  2
CENTERX2
 70
     0
  3
Center (2x) ________  __  ________  __  _____
 72
    65
 73
     4
 40
0.8
 49
0.5
 74
     0
 49
-0.1
 74
     0
 49
0.1
 74
     0
 49
-0.1
 74
     0
  0
LTYPE
  5
61
330
5
100
AcDbSymbolTableRecord
100
AcDbLinetypeTableRecord
  2
DOT2
 70
     0
  3
Dot (.5x) ........................................
 72
    65
 73
     2
 40
0.025
 49
0.0
 74
     0
 49
-0.025
 74
     0
  0
ENDTAB
  0
TABLE
  2
LAYER
  5
2
330
0
100
AcDbSymbolTable
 70
     8
  0
LAYER
  5
10
330
2
100
AcDbSymbolTableRecord
100
AcDbLayerTableRecord
  2
0
 70
     0
 62
     7
  6
Continuous
370
    -3
390
F
  0
LAYER
  5
62
330
2
100
AcDbSymbolTableRecord
100
AcDbLayerTableRecord
  2
SLD-0
 70
     0
 62
     7
  6
Continuous
370
    -3
390
F
  0
LAYER
  5
63
330
2
100
AcDbSymbolTableRecord
100
AcDbLayerTableRecord
  2
FORMAT
 70
     0
 62
     7
  6
Continuous
370
    -3
390
F
  0
LAYER
  5
26A
330
2
100
AcDbSymbolTableRecord
100
AcDbLayerTableRecord
  2
Defpoints
 70
     0
 62
     7
  6
Continuous
290
     0
370
    -3
390
F
  0
LAYER
  5
2BE
330
2
100
AcDbSymbolTableRecord
100
AcDbLayerTableRecord
  2
Layer1
 70
     0
 62
    -7
  6
Continuous
370
    -3
390
F
  0
LAYER
  5
2BF
330
2
100
AcDbSymbolTableRecord
100
AcDbLayerTableRecord
  2
Layer2
 70
     0
 62
     7
  6
Continuous
370
    -3
390
F
  0
LAYER
  5
2C3
330
2
100
AcDbSymbolTableRecord
100
AcDbLayerTableRecord
  2
WATER
 70
     0
 62
     7
  6
Continuous
370
    -3
390
F
  0
LAYER
  5
3F0
330
2
100
AcDbSymbolTableRecord
100
AcDbLayerTableRecord
  2
HEAT
 70
     0
 62
     7
  6
Continuous
370
    -3
390
F
  0
ENDTAB
  0
TABLE
  2
STYLE
  5
3
330
0
100
AcDbSymbolTable
 70
     3
  0
STYLE
  5
11
330
3
100
AcDbSymbolTableRecord
100
AcDbTextStyleTableRecord
  2
Standard
 70
     0
 40
0.0
 41
1.0
 50
0.0
 71
     0
 42
0.2
  3
txt
  4

  0
STYLE
  5
27F
330
3
100
AcDbSymbolTableRecord
100
AcDbTextStyleTableRecord
  2
SLDTEXTSTYLE0
 70
     0
 40
0.0
 41
0.75
 50
0.0
 71
     0
 42
0.2
  3
TXT
  4

  0
STYLE
  5
280
330
3
100
AcDbSymbolTableRecord
100
AcDbTextStyleTableRecord
  2
SLDTEXTSTYLE1
 70
     0
 40
0.0
 41
0.6964285714285714
 50
0.0
 71
     0
 42
0.2
  3
TXT
  4

  0
ENDTAB
  0
TABLE
  2
VIEW
  5
6
330
0
100
AcDbSymbolTable
 70
     0
  0
ENDTAB
  0
TABLE
  2
UCS
  5
7
330
0
100
AcDbSymbolTable
 70
     0
  0
ENDTAB
  0
TABLE
  2
APPID
  5
9
330
0
100
AcDbSymbolTable
 70
     2
  0
APPID
  5
12
330
9
100
AcDbSymbolTableRecord
100
AcDbRegAppTableRecord
  2
ACAD
 70
     0
  0
APPID
  5
2B1
330
9
100
AcDbSymbolTableRecord
100
AcDbRegAppTableRecord
  2
DCO15
 70
     0
  0
ENDTAB
  0
TABLE
  2
DIMSTYLE
  5
A
330
0
100
AcDbSymbolTable
 70
     2
100
AcDbDimStyleTable
 71
     1
340
27
  0
DIMSTYLE
105
27
330
A
100
AcDbSymbolTableRecord
100
AcDbDimStyleTableRecord
  2
Standard
 70
     0
340
11
  0
DIMSTYLE
105
281
330
A
100
AcDbSymbolTableRecord
100
AcDbDimStyleTableRecord
  2
ISO-25
 70
     0
 41
2.5
 42
0.625
 43
3.75
 44
1.25
 73
     0
 74
     0
 77
     1
 78
     8
140
2.5
141
2.5
143
0.03937007874016
147
0.625
171
     3
172
     1
271
     2
272
     2
274
     3
278
    44
283
     0
284
     8
340
11
  0
ENDTAB
  0
TABLE
  2
BLOCK_RECORD
  5
1
330
0
100
AcDbSymbolTable
 70
     3
  0
BLOCK_RECORD
  5
1F
330
1
100
AcDbSymbolTableRecord
100
AcDbBlockTableRecord
  2
*Model_Space
340
22
  0
BLOCK_RECORD
  5
1B
330
1
100
AcDbSymbolTableRecord
100
AcDbBlockTableRecord
  2
*Paper_Space
340
1E
  0
BLOCK_RECORD
  5
23
330
1
100
AcDbSymbolTableRecord
100
AcDbBlockTableRecord
  2
*Paper_Space0
340
26
  0
BLOCK_RECORD
  5
278
330
1
100
AcDbSymbolTableRecord
100
AcDbBlockTableRecord
  2
SW_NOTE_0
340
0
1001
ACAD
1000
DesignCenter Data
1002
{
1070
     1
1070
     0
1002
}
  0
ENDTAB
  0
ENDSEC
  0
SECTION
  2
BLOCKS
  0
BLOCK
  5
20
330
1F
100
AcDbEntity
  8
0
100
AcDbBlockBegin
  2
*Model_Space
 70
     0
 10
0.0
 20
0.0
 30
0.0
  3
*Model_Space
  1

  0
ENDBLK
  5
21
330
1F
100
AcDbEntity
  8
0
100
AcDbBlockEnd
  0
BLOCK
  5
1C
330
1B
100
AcDbEntity
 67
     1
  8
0
100
AcDbBlockBegin
  2
*Paper_Space
 70
     0
 10
0.0
 20
0.0
 30
0.0
  3
*Paper_Space
  1

  0
ENDBLK
  5
1D
330
1B
100
AcDbEntity
 67
     1
  8
0
100
AcDbBlockEnd
  0
BLOCK
  5
24
330
23
100
AcDbEntity
  8
0
100
AcDbBlockBegin
  2
*Paper_Space0
 70
     0
 10
0.0
 20
0.0
 30
0.0
  3
*Paper_Space0
  1

  0
ENDBLK
  5
25
330
23
100
AcDbEntity
  8
0
100
AcDbBlockEnd
  0
BLOCK
  5
27D
330
278
100
AcDbEntity
  8
0
100
AcDbBlockBegin
  2
SW_NOTE_0
 70
     0
 10
0.0
 20
0.0
 30
0.0
  3
SW_NOTE_0
  1

  0
MTEXT
  5
279
330
278
100
AcDbEntity
  8
0
  6
Continuous
 62
     0
370
     0
100
AcDbMText
 10
0.0
 20
33.79638671875001
 30
0.0
 40
26.45833333333333
 41
0.0
 71
     1
 72
     1
  1
TITUS
  7
SLDTEXTSTYLE0
 73
     1
 44
1.0
  0
MTEXT
  5
27A
330
278
100
AcDbEntity
  8
0
  6
Continuous
 62
     0
370
     0
100
AcDbMText
 10
-125.1381188631057
 20
-1.481389701366409
 30
0.0
 40
26.45833333333333
 41
0.0
 71
     1
 72
     1
  1
LHK W/WATER COIL
  7
SLDTEXTSTYLE1
 73
     1
 44
1.0
  0
MTEXT
  5
27B
330
278
100
AcDbEntity
  8
0
  6
Continuous
 62
     0
370
     0
100
AcDbMText
 10
-21.63214236497879
 20
-36.75916612148283
 30
0.0
 40
26.45833333333333
 41
0.0
 71
     1
 72
     1
  1
SIZE 3-4
  7
SLDTEXTSTYLE0
 73
     1
 44
1.0
  0
MTEXT
  5
27C
330
278
100
AcDbEntity
  8
0
  6
Continuous
 62
     0
370
     0
100
AcDbMText
 10
-22.930558770895
 20
-72.03694254159926
 30
0.0
 40
26.45833333333333
 41
0.0
 71
     1
 72
     1
  1
9" INLET
  7
SLDTEXTSTYLE0
 73
     1
 44
1.0
  0
ENDBLK
  5
27E
330
278
100
AcDbEntity
  8
0
100
AcDbBlockEnd
  0
ENDSEC
  0
SECTION
  2
ENTITIES
  0
ARC
  5
6D
330
1F
100
AcDbEntity
  8
Layer2
  6
Continuous
 62
     7
370
    18
100
AcDbCircle
 10
20.27220083437863
 20
42.74289985123778
 30
0.0
 40
0.125
100
AcDbArc
 50
359.9999999999989
 51
180.0
  0
ARC
  5
6E
330
1F
100
AcDbEntity
  8
Layer2
  6
Continuous
 62
     7
370
    18
100
AcDbCircle
 10
20.27220083437861
 20
33.86789985123778
 30
0.0
 40
0.1249999999999964
100
AcDbArc
 50
180.0
 51
359.9999999999996
  0
SPLINE
  5
6F
330
1F
100
AcDbEntity
  8
Layer2
  6
Continuous
 62
     7
370
    18
100
AcDbSpline
210
0.0
220
0.0
230
1.0
 70
    24
 71
     1
 72
     4
 73
     2
 74
     0
 42
0.0000000001
 43
0.0000000001
 40
0.0
 40
0.0
 40
1.0
 40
1.0
 10
16.9912017829923
 20
42.74289959494852
 30
0.0
 10
19.242760199464
 20
42.74289959494851
 30
0.0
  0
SPLINE
  5
70
330
1F
100
AcDbEntity
  8
Layer2
  6
Continuous
 62
     7
370
    18
100
AcDbSpline
210
0.0
220
0.0
230
1.0
 70
    24
 71
     1
 72
     4
 73
     2
 74
     0
 42
0.0000000001
 43
0.0000000001
 40
0.0
 40
0.0
 40
1.0
 40
1.0
 10
19.98964159809302
 20
42.74289959494851
 30
0.0
 10
20.14719967130205
 20
42.74289959494851
 30
0.0
  0
SPLINE
  5
71
330
1F
100
AcDbEntity
  8
Layer2
  6
Continuous
 62
     7
370
    18
100
AcDbSpline
210
0.0
220
0.0
230
1.0
 70
    24
 71
     1
 72
     4
 73
     2
 74
     0
 42
0.0000000001
 43
0.0000000001
 40
0.0
 40
0.0
 40
1.0
 40
1.0
 10
20.14719967130202
 20
33.86789982761782
 30
0.0
 10
16.99120178299227
 20
33.86789982761783
 30
0.0
  0
SPLINE
  5
72
330
1F
100
AcDbEntity
  8
Layer2
  6
Continuous
 62
     7
370
    18
100
AcDbSpline
210
0.0
220
0.0
230
1.0
 70
    24
 71
     1
 72
     4
 73
     2
 74
     0
 42
0.0000000001
 43
0.0000000001
 40
0.0
 40
0.0
 40
1.0
 40
1.0
 10
20.39720126326233
 20
42.74289959494851
 30
0.0
 10
20.43493992063547
 20
42.74289959494851
 30
0.0
  0
SPLINE
  5
73
330
1F
100
AcDbEntity
  8
Layer2
  6
Continuous
 62
     7
370
    18
100
AcDbSpline
210
0.0
220
0.0
230
1.0
 70
    24
 71
     1
 72
     4
 73
     2
 74
     0
 42
0.0000000001
 43
0.0000000001
 40
0.0
 40
0.0
 40
1.0
 40
1.0
 10
20.43493992063544
 20
33.86789982761782
 30
0.0
 10
20.39720126326229
 20
33.86789982761782
 30
0.0
  0
LINE
  5
86
330
1F
100
AcDbEntity
  8
HEAT
  6
Continuous
 62
     7
370
    18
100
AcDbLine
 10
68.59758844827648
 20
31.11635242310407
 30
0.0
 11
90.91008034579941
 21
31.11635242310416
 31
0.0
  0
SPLINE
  5
87
330
1F
100
AcDbEntity
  8
HEAT
  6
Continuous
 62
     7
370
    18
100
AcDbSpline
210
0.0
220
0.0
230
1.0
 70
     8
 71
     3
 72
     9
 73
     5
 74
     0
 42
0.0000000001
 43
0.0000000001
 40
0.0
 40
0.0
 40
0.0
 40
0.0
 40
0.4999982002782003
 40
1.0
 40
1.0
 40
1.0
 40
1.0
 10
90.89358816298519
 20
31.08736115801372
 30
0.0
 10
90.89633686506774
 20
31.09159589922265
 30
0.0
 10
90.90183428902053
 20
31.10006541212603
 30
0.0
 10
90.90733165361063
 20
31.1109234064172
 30
0.0
 10
90.91008034579941
 20
31.11635242310416
 30
0.0
  0
SPLINE
  5
88
330
1F
100
AcDbEntity
  8
HEAT
  6
Continuous
 62
     7
370
    18
100
AcDbSpline
210
0.0
220
0.0
230
1.0
 70
     8
 71
     3
 72
     9
 73
     5
 74
     0
 42
0.0000000001
 43
0.0000000001
 40
0.0
 40
0.0
 40
0.0
 40
0.0
 40
0.5000033397426035
 40
1.0
 40
1.0
 40
1.0
 40
1.0
 10
90.91008034579941
 20
31.07535252340516
 30
0.0
 10
90.90733165784376
 20
31.07591230605653
 30
0.0
 10
90.90183431865186
 20
31.07703186388119
 30
0.0
 10
90.89633686930069
 20
31.08391807530166
 30
0.0
 10
90.89358816298519
 20
31.08736115801372
 30
0.0
  0
LINE
  5
89
330
1F
100
AcDbEntity
  8
HEAT
  6
Continuous
 62
     7
370
    18
100
AcDbLine
 10
68.59758844827648
 20
31.07535252340508
 30
0.0
 11
90.91008034579941
 21
31.07535252340516
 31
0.0
  0
LINE
  5
8C
330
1F
100
AcDbEntity
  8
HEAT
  6
Continuous
 62
     7
370
    18
100
AcDbLine
 10
90.92858594535444
 20
42.9263390064647
 30
0.0
 11
90.92858594535444
 21
42.94535265348409
 31
0.0
  0
LINE
  5
8D
330
1F
100
AcDbEntity
  8
HEAT
  6
Continuous
 62
     7
370
    18
100
AcDbLine
 10
91.61658781083152
 20
42.23833948762719
 30
0.0
 11
90.92858594535444
 21
42.9263390064647
 31
0.0
  0
LINE
  5
8E
330
1F
100
AcDbEntity
  8
HEAT
  6
Continuous
 62
     7
370
    18
100
AcDbLine
 10
91.61658781083152
 20
42.23833948762719
 30
0.0
 11
91.61658781083154
 21
31.82285915481144
 31
0.0
  0
LINE
  5
8F
330
1F
100
AcDbEntity
  8
HEAT
  6
Continuous
 62
     7
370
    18
100
AcDbLine
 10
90.91008034579941
 20
31.11635242310416
 30
0.0
 11
91.61658781083154
 21
31.82285915481144
 31
0.0
  0
LINE
  5
92
330
1F
100
AcDbEntity
  8
HEAT
  6
Continuous
 62
     7
370
    18
100
AcDbLine
 10
68.61160023307776
 20
42.945352653484
 30
0.0
 11
90.92858594535444
 21
42.94535265348409
 31
0.0
  0
LINE
  5
94
330
1F
100
AcDbEntity
  8
HEAT
  6
Continuous
 62
     7
370
    18
100
AcDbLine
 10
90.92858594535444
 20
42.98635255318308
 30
0.0
 11
68.61160023307776
 21
42.986352553183
 31
0.0
  0
LINE
  5
95
330
1F
100
AcDbEntity
  8
HEAT
  6
Continuous
 62
     7
370
    18
100
AcDbLine
 10
90.92858594535444
 20
42.94535265348409
 30
0.0
 11
90.92858594535444
 21
42.98635255318308
 31
0.0
  0
SPLINE
  5
97
330
1F
100
AcDbEntity
  8
HEAT
  6
Continuous
 62
     7
370
    18
100
AcDbSpline
210
0.0
220
0.0
230
1.0
 70
    24
 71
     1
 72
     4
 73
     2
 74
     0
 42
0.0000000001
 43
0.0000000001
 40
0.0
 40
0.0
 40
1.0
 40
1.0
 10
90.91008034579941
 20
31.11535246132246
 30
0.0
 10
90.91008034579941
 20
31.07535252340516
 30
0.0
  0
SPLINE
  5
9A
330
1F
100
AcDbEntity
  8
HEAT
  6
Continuous
 62
     7
370
    18
100
AcDbSpline
210
0.0
220
0.0
230
1.0
 70
    24
 71
     1
 72
     4
 73
     2
 74
     0
 42
0.0000000001
 43
0.0000000001
 40
0.0
 40
0.0
 40
1.0
 40
1.0
 10
91.02905027811527
 20
31.11535246132246
 30
0.0
 10
91.02905027811527
 20
31.07535252340516
 30
0.0
  0
LINE
  5
9B
330
1F
100
AcDbEntity
  8
HEAT
  6
Continuous
 62
     7
370
    18
100
AcDbLine
 10
91.02905027811527
 20
31.11535246132247
 30
0.0
 11
90.91008034579941
 21
31.11535246132247
 31
0.0
  0
LINE
  5
9C
330
1F
100
AcDbEntity
  8
HEAT
  6
Continuous
 62
     7
370
    18
100
AcDbLine
 10
91.02905027811527
 20
31.07535252340516
 30
0.0
 11
90.91008034579941
 21
31.07535252340516
 31
0.0
  0
SPLINE
  5
A1
330
1F
100
AcDbEntity
  8
HEAT
  6
Continuous
 62
     7
370
    18
100
AcDbSpline
210
0.0
220
0.0
230
1.0
 70
     8
 71
     3
 72
    14
 73
    10
 74
     0
 42
0.0000000001
 43
0.0000000001
 40
0.0
 40
0.0
 40
0.0
 40
0.0
 40
0.1426732610269473
 40
0.2631283882905107
 40
0.3464929570712437
 40
0.5007659548620344
 40
0.7372969273397687
 40
0.872541399054209
 40
1.0
 40
1.0
 40
1.0
 40
1.0
 10
91.02905027811527
 20
31.01535246986424
 30
0.0
 10
91.03352161877511
 20
31.01575706478832
 30
0.0
 10
91.04176798990911
 20
31.01650324812722
 30
0.0
 10
91.05350704261201
 20
31.02667996191542
 30
0.0
 10
91.0583259920434
 20
31.03688498312205
 30
0.0
 10
91.05980064681524
 20
31.04675923039264
 30
0.0
 10
91.05715998692039
 20
31.06035904395789
 30
0.0
 10
91.04356785762501
 20
31.07333257136856
 30
0.0
 10
91.03379290277217
 20
31.07469264244304
 30
0.0
 10
91.02905027811527
 20
31.07535252340516
 30
0.0
  0
SPLINE
  5
A2
330
1F
100
AcDbEntity
  8
HEAT
  6
Continuous
 62
     7
370
    18
100
AcDbSpline
210
0.0
220
0.0
230
1.0
 70
     8
 71
     3
 72
    19
 73
    15
 74
     0
 42
0.0000000001
 43
0.0000000001
 40
0.0
 40
0.0
 40
0.0
 40
0.0
 40
0.0743557632880191
 40
0.1461322054013506
 40
0.2155334491777935
 40
0.2828067319482268
 40
0.3660621348078599
 40
0.5004071207727263
 40
0.6169778123210369
 40
0.7176841943248559
 40
0.789520924470085
 40
0.8604967687469525
 40
0.9306495853349758
 40
1.0
 40
1.0
 40
1.0
 40
1.0
 10
91.02905027811527
 20
30.97535253194693
 30
0.0
 10
91.03450263585932
 20
30.97571100735772
 30
0.0
 10
91.04521821494213
 20
30.97641552305419
 30
0.0
 10
91.06088349215694
 20
30.98233529787773
 30
0.0
 10
91.07465316433453
 20
30.99133870186697
 30
0.0
 10
91.08728937483972
 20
31.00506426549401
 30
0.0
 10
91.09692485713742
 20
31.02391900028572
 30
0.0
 10
91.10020796210633
 20
31.04413580126729
 30
0.0
 10
91.09712805862345
 20
31.06609946954704
 30
0.0
 10
91.08778813638506
 20
31.08513034602459
 30
0.0
 10
91.07497076106811
 20
31.09906314409415
 30
0.0
 10
91.0611987429664
 20
31.10821122084122
 30
0.0
 10
91.04563497213662
 20
31.11420984980869
 30
0.0
 10
91.03455727035578
 20
31.11497305409721
 30
0.0
 10
91.02905027811527
 20
31.11535246132246
 30
0.0
  0
SPLINE
  5
A3
330
1F
100
AcDbEntity
  8
HEAT
  6
Continuous
 62
     7
370
    18
100
AcDbSpline
210
0.0
220
0.0
230
1.0
 70
    24
 71
     1
 72
     4
 73
     2
 74
     0
 42
0.0000000001
 43
0.0000000001
 40
0.0
 40
0.0
 40
1.0
 40
1.0
 10
91.02905027811527
 20
30.97535253194693
 30
0.0
 10
91.02905027811527
 20
31.01535246986424
 30
0.0
  0
LINE
  5
A4
330
1F
100
AcDbEntity
  8
HEAT
  6
Continuous
 62
     7
370
    18
100
AcDbLine
 10
90.59858741085902
 20
30.97535253194693
 30
0.0
 11
90.59858741085902
 21
31.01535246986423
 31
0.0
  0
LINE
  5
A5
330
1F
100
AcDbEntity
  8
HEAT
  6
Continuous
 62
     7
370
    18
100
AcDbLine
 10
90.59858741085902
 20
31.01535246986423
 30
0.0
 11
91.02905027811527
 21
31.01535246986424
 31
0.0
  0
LINE
  5
A6
330
1F
100
AcDbEntity
  8
HEAT
  6
Continuous
 62
     7
370
    18
100
AcDbLine
 10
90.59858741085902
 20
30.97535253194693
 30
0.0
 11
91.02905027811527
 21
30.97535253194693
 31
0.0
  0
LINE
  5
AF
330
1F
100
AcDbEntity
  8
HEAT
  6
Continuous
 62
     7
370
    18
100
AcDbLine
 10
68.45944177749186
 20
24.76035275482129
 30
0.0
 11
89.33147244867923
 21
24.76035275482136
 31
0.0
  0
LINE
  5
B3
330
1F
100
AcDbEntity
  8
HEAT
  6
Continuous
 62
     7
370
    18
100
AcDbLine
 10
68.45944177749186
 20
24.70920886514885
 30
0.0
 11
89.34146913319667
 21
24.71035231909733
 31
0.0
  0
LINE
  5
DB
330
1F
100
AcDbEntity
  8
HEAT
  6
Continuous
 62
     7
370
    18
100
AcDbLine
 10
89.24583887792552
 20
31.02535238101107
 30
0.0
 11
89.26115774096071
 21
31.01003762459511
 31
0.0
  0
LINE
  5
DC
330
1F
100
AcDbEntity
  8
HEAT
  6
Continuous
 62
     7
370
    18
100
AcDbLine
 10
89.26115774096073
 20
24.7103479214219
 30
0.0
 11
89.26115774096071
 21
31.01003762459511
 31
0.0
  0
LINE
  5
E0
330
1F
100
AcDbEntity
  8
HEAT
  6
Continuous
 62
     7
370
    18
100
AcDbLine
 10
69.34912792642828
 20
31.02535238101099
 30
0.0
 11
89.24583887792552
 21
31.02535238101107
 31
0.0
  0
SPLINE
  5
109
330
1F
100
AcDbEntity
  8
HEAT
  6
Continuous
 62
     7
370
    18
100
AcDbSpline
210
0.0
220
0.0
230
1.0
 70
     8
 71
     3
 72
    11
 73
     7
 74
     0
 42
0.0000000001
 43
0.0000000001
 40
0.0
 40
0.0
 40
0.0
 40
0.0
 40
0.2500112140512916
 40
0.5000008719259354
 40
0.7500111070633269
 40
1.0
 40
1.0
 40
1.0
 40
1.0
 10
89.211155545257
 20
31.07535252340516
 30
0.0
 10
89.21404707579917
 20
31.07460113442524
 30
0.0
 10
89.21982988757328
 20
31.07309842125078
 30
0.0
 10
89.22849574826882
 20
31.06153426860013
 30
0.0
 10
89.23717155822005
 20
31.04500900512061
 30
0.0
 10
89.24294985357155
 20
31.03190440259322
 30
0.0
 10
89.24583887792552
 20
31.02535238101107
 30
0.0
  0
LINE
  5
11F
330
1F
100
AcDbEntity
  8
HEAT
  6
Continuous
 62
     7
370
    18
100
AcDbLine
 10
89.26115774096071
 20
30.96503758443941
 30
0.0
 11
89.29147163077209
 21
30.99535264757055
 31
0.0
  0
LINE
  5
120
330
1F
100
AcDbEntity
  8
HEAT
  6
Continuous
 62
     7
370
    18
100
AcDbLine
 10
89.2914716307721
 20
24.71034958134392
 30
0.0
 11
89.29147163077209
 21
30.99535264757055
 31
0.0
  0
SPLINE
  5
121
330
1F
100
AcDbEntity
  8
HEAT
  6
Continuous
 62
     7
370
    18
100
AcDbSpline
210
0.0
220
0.0
230
1.0
 70
     8
 71
     3
 72
    11
 73
     7
 74
     0
 42
0.0000000001
 43
0.0000000001
 40
0.0
 40
0.0
 40
0.0
 40
0.0
 40
0.2500024602487862
 40
0.499995556036195
 40
0.7499917545881641
 40
1.0
 40
1.0
 40
1.0
 40
1.0
 10
89.34146913319665
 20
31.02535238101107
 30
0.0
 10
89.34071732694544
 20
31.02285244408745
 30
0.0
 10
89.33921374260377
 20
31.01785266388154
 30
0.0
 10
89.32765375531689
 20
31.01035271383775
 30
0.0
 10
89.31112732245477
 20
31.00285220246821
 30
0.0
 10
89.29802363323757
 20
30.99785253935624
 30
0.0
 10
89.29147163077207
 20
30.99535264757055
 30
0.0
  0
LINE
  5
122
330
1F
100
AcDbEntity
  8
HEAT
  6
Continuous
 62
     7
370
    18
100
AcDbLine
 10
89.34146913319667
 20
24.71035231909733
 30
0.0
 11
89.34146913319667
 21
31.02535238101107
 31
0.0
  0
SPLINE
  5
126
330
1F
100
AcDbEntity
  8
HEAT
  6
Continuous
 62
     7
370
    18
100
AcDbSpline
210
0.0
220
0.0
230
1.0
 70
     8
 71
     3
 72
     9
 73
     5
 74
     0
 42
0.0000000001
 43
0.0000000001
 40
0.0
 40
0.0
 40
0.0
 40
0.0
 40
0.5000136466045057
 40
1.0
 40
1.0
 40
1.0
 40
1.0
 10
89.30146831528951
 20
31.02535238101107
 30
0.0
 10
89.30083711081685
 20
31.02035256700761
 30
0.0
 10
89.2995747363258
 20
31.01035321191518
 30
0.0
 10
89.29417261680958
 20
31.00035274470381
 30
0.0
 10
89.29147163077207
 20
30.99535264757055
 30
0.0
  0
SPLINE
  5
127
330
1F
100
AcDbEntity
  8
HEAT
  6
Continuous
 62
     7
370
    18
100
AcDbSpline
210
0.0
220
0.0
230
1.0
 70
    24
 71
     1
 72
     4
 73
     2
 74
     0
 42
0.0000000001
 43
0.0000000001
 40
0.0
 40
0.0
 40
1.0
 40
1.0
 10
89.30146831528951
 20
31.02535238101107
 30
0.0
 10
89.34146913319665
 20
31.02535238101107
 30
0.0
  0
SPLINE
  5
12B
330
1F
100
AcDbEntity
  8
HEAT
  6
Continuous
 62
     7
370
    18
100
AcDbSpline
210
0.0
220
0.0
230
1.0
 70
     8
 71
     3
 72
    11
 73
     7
 74
     0
 42
0.0000000001
 43
0.0000000001
 40
0.0
 40
0.0
 40
0.0
 40
0.0
 40
0.2500071276166499
 40
0.5000022084272949
 40
0.749994186487252
 40
1.0
 40
1.0
 40
1.0
 40
1.0
 10
89.29147163077207
 20
31.07535252340516
 30
0.0
 10
89.29802363331255
 20
31.07460103758394
 30
0.0
 10
89.31112732267974
 20
31.07309810215249
 30
0.0
 10
89.32765375441698
 20
31.06153529684352
 30
0.0
 10
89.33921381489303
 20
31.0450073935452
 30
0.0
 10
89.3407173465607
 20
31.03190417271564
 30
0.0
 10
89.34146913319665
 20
31.02535238101107
 30
0.0
  0
SPLINE
  5
12C
330
1F
100
AcDbEntity
  8
HEAT
  6
Continuous
 62
     7
370
    18
100
AcDbSpline
210
0.0
220
0.0
230
1.0
 70
     8
 71
     3
 72
     9
 73
     5
 74
     0
 42
0.0000000001
 43
0.0000000001
 40
0.0
 40
0.0
 40
0.0
 40
0.0
 40
0.4999806458092994
 40
0.9999999999999998
 40
0.9999999999999998
 40
0.9999999999999998
 40
0.9999999999999998
 10
89.29147163077207
 20
31.03535258548785
 30
0.0
 10
89.29417261844287
 20
31.03472142713329
 30
0.0
 10
89.29957480289429
 20
31.03345906156002
 30
0.0
 10
89.30083712820358
 20
31.02805467759237
 30
0.0
 10
89.30146831528951
 20
31.02535238101107
 30
0.0
  0
SPLINE
  5
12D
330
1F
100
AcDbEntity
  8
HEAT
  6
Continuous
 62
     7
370
    18
100
AcDbSpline
210
0.0
220
0.0
230
1.0
 70
    24
 71
     1
 72
     4
 73
     2
 74
     0
 42
0.0000000001
 43
0.0000000001
 40
0.0
 40
0.0
 40
1.0
 40
1.0
 10
89.29147163077207
 20
31.03535258548785
 30
0.0
 10
89.29147163077207
 20
31.07535252340516
 30
0.0
  0
LINE
  5
130
330
1F
100
AcDbEntity
  8
HEAT
  6
Continuous
 62
     7
370
    18
100
AcDbLine
 10
89.29147163077209
 20
31.03535258548785
 30
0.0
 11
89.24130986357843
 21
31.03535258548785
 31
0.0
  0
SPLINE
  5
132
330
1F
100
AcDbEntity
  8
HEAT
  6
Continuous
 62
     7
370
    18
100
AcDbSpline
210
0.0
220
0.0
230
1.0
 70
     8
 71
     3
 72
     9
 73
     5
 74
     0
 42
0.0000000001
 43
0.0000000001
 40
0.0
 40
0.0
 40
0.0
 40
0.0
 40
0.50000144315803
 40
0.9999999999999998
 40
0.9999999999999998
 40
0.9999999999999998
 40
0.9999999999999998
 10
89.25349830944304
 20
31.02535238101103
 30
0.0
 10
89.24771776234059
 20
31.02805468271454
 30
0.0
 10
89.23615670150455
 20
31.03345927052219
 30
0.0
 10
89.22459554056148
 20
31.03472148171366
 30
0.0
 10
89.21881497677453
 20
31.03535258548782
 30
0.0
  0
LINE
  5
14A
330
1F
100
AcDbEntity
  8
HEAT
  6
Continuous
 62
     7
370
    18
100
AcDbLine
 10
89.28748234352324
 20
30.99136629362122
 30
0.0
 11
89.25349830944306
 21
31.02535238101104
 31
0.0
  0
LINE
  5
14B
330
1F
100
AcDbEntity
  8
0
  6
Continuous
 62
     7
370
    18
100
AcDbLine
 10
23.61825034676184
 20
51.89876991617722
 30
0.0
 11
23.61825034676181
 21
43.99235223845559
 31
0.0
  0
SPLINE
  5
14C
330
1F
100
AcDbEntity
  8
0
  6
Continuous
 62
     7
370
    18
100
AcDbSpline
210
0.0
220
0.0
230
1.0
 70
     8
 71
     3
 72
    11
 73
     7
 74
     0
 42
0.0000000001
 43
0.0000000001
 40
0.0
 40
0.0
 40
0.0
 40
0.0
 40
0.3031377925239381
 40
0.6062912197080052
 40
0.9094158619522051
 40
1.0
 40
1.0
 40
1.0
 40
1.0
 10
23.61825034676181
 20
43.99235223845558
 30
0.0
 10
23.618860867496
 20
43.99397523678673
 30
0.0
 10
23.62008194045264
 20
43.99722131715694
 30
0.0
 10
23.62965053877044
 20
44.00209201803739
 30
0.0
 10
23.63978519700129
 20
44.00582336380237
 30
0.0
 10
23.64666653519068
 20
44.0079311923765
 30
0.0
 10
23.64824978687239
 20
44.00841615955046
 30
0.0
  0
SPLINE
  5
14F
330
1F
100
AcDbEntity
  8
0
  6
Continuous
 62
     7
370
    18
100
AcDbSpline
210
0.0
220
0.0
230
1.0
 70
    24
 71
     1
 72
     4
 73
     2
 74
     0
 42
0.0000000001
 43
0.0000000001
 40
0.0
 40
0.0
 40
1.0
 40
1.0
 10
23.64824978687239
 20
43.99235223845558
 30
0.0
 10
23.61825034676181
 20
43.99235223845558
 30
0.0
  0
SPLINE
  5
152
330
1F
100
AcDbEntity
  8
0
  6
Continuous
 62
     7
370
    18
100
AcDbSpline
210
0.0
220
0.0
230
1.0
 70
     8
 71
     3
 72
    11
 73
     7
 74
     0
 42
0.0000000001
 43
0.0000000001
 40
0.0
 40
0.0
 40
0.0
 40
0.0
 40
0.0906220220103499
 40
0.393739869586904
 40
0.696869002438477
 40
1.0
 40
1.0
 40
1.0
 40
1.0
 10
23.71909718177057
 20
43.93756993797206
 30
0.0
 10
23.71861224580614
 20
43.93598587956165
 30
0.0
 10
23.7165052676218
 20
43.92910336979091
 30
0.0
 10
23.71277255727082
 20
43.9189684098862
 30
0.0
 10
23.70790378622377
 20
43.90940104898911
 30
0.0
 10
23.70465755473311
 20
43.90817990060948
 30
0.0
 10
23.70303443399547
 20
43.90756932454171
 30
0.0
  0
SPLINE
  5
153
330
1F
100
AcDbEntity
  8
0
  6
Continuous
 62
     7
370
    18
100
AcDbSpline
210
0.0
220
0.0
230
1.0
 70
     8
 71
     3
 72
    11
 73
     7
 74
     0
 42
0.0000000001
 43
0.0000000001
 40
0.0
 40
0.0
 40
0.0
 40
0.0
 40
0.3031291204676958
 40
0.6062579246034348
 40
0.9093754435916835
 40
1.0
 40
1.0
 40
1.0
 40
1.0
 10
39.53346753281478
 20
43.90756932454163
 30
0.0
 10
39.5318444506725
 20
43.90817990970634
 30
0.0
 10
39.52859828808172
 20
43.90940107939859
 30
0.0
 10
39.52372892153325
 20
43.91896835618136
 30
0.0
 10
39.51999662949189
 20
43.92910354933241
 30
0.0
 10
39.51788876298738
 20
43.93598588435545
 30
0.0
 10
39.51740361171991
 20
43.93756993797199
 30
0.0
  0
SPLINE
  5
154
330
1F
100
AcDbEntity
  8
0
  6
Continuous
 62
     7
370
    18
100
AcDbSpline
210
0.0
220
0.0
230
1.0
 70
    24
 71
     1
 72
     4
 73
     2
 74
     0
 42
0.0000000001
 43
0.0000000001
 40
0.0
 40
0.0
 40
1.0
 40
1.0
 10
23.70303443399547
 20
43.90756932454171
 30
0.0
 10
23.70303443399547
 20
43.93756993797206
 30
0.0
  0
SPLINE
  5
157
330
1F
100
AcDbEntity
  8
0
  6
Continuous
 62
     7
370
    18
100
AcDbSpline
210
0.0
220
0.0
230
1.0
 70
     8
 71
     3
 72
    11
 73
     7
 74
     0
 42
0.0000000001
 43
0.0000000001
 40
0.0
 40
0.0
 40
0.0
 40
0.0
 40
0.0906071722755577
 40
0.3937338753000937
 40
0.6968695984940054
 40
1.0
 40
1.0
 40
1.0
 40
1.0
 10
39.58825071328814
 20
44.0084161595504
 30
0.0
 10
39.58983446357675
 20
44.00793120654546
 30
0.0
 10
39.59671665759056
 20
44.00582384107781
 30
0.0
 10
39.60685209626008
 20
44.00209209274485
 30
0.0
 10
39.61641926044299
 20
43.99722122830141
 30
0.0
 10
39.61764025042593
 20
43.99397522557322
 30
0.0
 10
39.6182507400586
 20
43.99235223845552
 30
0.0
  0
LINE
  5
158
330
1F
100
AcDbEntity
  8
0
  6
Continuous
 62
     7
370
    18
100
AcDbLine
 10
39.6182507400586
 20
43.99235223845553
 30
0.0
 11
39.61825074005863
 21
51.18876947816282
 31
0.0
  0
SPLINE
  5
159
330
1F
100
AcDbEntity
  8
0
  6
Continuous
 62
     7
370
    18
100
AcDbSpline
210
0.0
220
0.0
230
1.0
 70
    24
 71
     1
 72
     4
 73
     2
 74
     0
 42
0.0000000001
 43
0.0000000001
 40
0.0
 40
0.0
 40
1.0
 40
1.0
 10
39.53346753281478
 20
43.93756993797199
 30
0.0
 10
39.53346753281478
 20
43.90756932454163
 30
0.0
  0
SPLINE
  5
15A
330
1F
100
AcDbEntity
  8
0
  6
Continuous
 62
     7
370
    18
100
AcDbSpline
210
0.0
220
0.0
230
1.0
 70
    24
 71
     1
 72
     4
 73
     2
 74
     0
 42
0.0000000001
 43
0.0000000001
 40
0.0
 40
0.0
 40
1.0
 40
1.0
 10
39.6182507400586
 20
43.99235223845552
 30
0.0
 10
39.58825071328814
 20
43.99235223845552
 30
0.0
  0
SPLINE
  5
15B
330
1F
100
AcDbEntity
  8
0
  6
Continuous
 62
     7
370
    18
100
AcDbSpline
210
0.0
220
0.0
230
1.0
 70
    24
 71
     1
 72
     4
 73
     2
 74
     0
 42
0.0000000001
 43
0.0000000001
 40
0.0
 40
0.0
 40
1.0
 40
1.0
 10
23.6592508331207
 20
43.93756993797206
 30
0.0
 10
23.6592508331207
 20
43.90756932454169
 30
0.0
  0
SPLINE
  5
15C
330
1F
100
AcDbEntity
  8
0
  6
Continuous
 62
     7
370
    18
100
AcDbSpline
210
0.0
220
0.0
230
1.0
 70
    24
 71
     1
 72
     4
 73
     2
 74
     0
 42
0.0000000001
 43
0.0000000001
 40
0.0
 40
0.0
 40
1.0
 40
1.0
 10
23.61825034676181
 20
43.94856981090058
 30
0.0
 10
23.64824978687239
 20
43.94856981090057
 30
0.0
  0
LINE
  5
15D
330
1F
100
AcDbEntity
  8
0
  6
Continuous
 62
     7
370
    18
100
AcDbLine
 10
23.61825034676181
 20
43.99235223845559
 30
0.0
 11
23.61825034676181
 21
43.94856981090059
 31
0.0
  0
SPLINE
  5
15E
330
1F
100
AcDbEntity
  8
0
  6
Continuous
 62
     7
370
    18
100
AcDbSpline
210
0.0
220
0.0
230
1.0
 70
    24
 71
     1
 72
     4
 73
     2
 74
     0
 42
0.0000000001
 43
0.0000000001
 40
0.0
 40
0.0
 40
1.0
 40
1.0
 10
39.58825071328814
 20
43.94856981090052
 30
0.0
 10
39.6182507400586
 20
43.94856981090052
 30
0.0
  0
LINE
  5
15F
330
1F
100
AcDbEntity
  8
0
  6
Continuous
 62
     7
370
    18
100
AcDbLine
 10
39.6182507400586
 20
43.94856981090053
 30
0.0
 11
39.6182507400586
 21
43.99235223845553
 31
0.0
  0
SPLINE
  5
160
330
1F
100
AcDbEntity
  8
0
  6
Continuous
 62
     7
370
    18
100
AcDbSpline
210
0.0
220
0.0
230
1.0
 70
    24
 71
     1
 72
     4
 73
     2
 74
     0
 42
0.0000000001
 43
0.0000000001
 40
0.0
 40
0.0
 40
1.0
 40
1.0
 10
39.57725084035961
 20
43.90756932454164
 30
0.0
 10
39.57725084035962
 20
43.93756993797199
 30
0.0
  0
SPLINE
  5
161
330
1F
100
AcDbEntity
  8
0
  6
Continuous
 62
     7
370
    18
100
AcDbSpline
210
0.0
220
0.0
230
1.0
 70
    24
 71
     1
 72
     4
 73
     2
 74
     0
 42
0.0000000001
 43
0.0000000001
 40
0.0
 40
0.0
 40
1.0
 40
1.0
 10
39.60624210545005
 20
43.91957825248015
 30
0.0
 10
39.58825071328814
 20
43.93756993797199
 30
0.0
  0
SPLINE
  5
162
330
1F
100
AcDbEntity
  8
0
  6
Continuous
 62
     7
370
    18
100
AcDbSpline
210
0.0
220
0.0
230
1.0
 70
     8
 71
     3
 72
    11
 73
     7
 74
     0
 42
0.0000000001
 43
0.0000000001
 40
0.0
 40
0.0
 40
0.0
 40
0.0
 40
0.2500260541058068
 40
0.5000165335640709
 40
0.7500059865472358
 40
1.0
 40
1.0
 40
1.0
 40
1.0
 10
39.6182507400586
 20
43.94856981090052
 30
0.0
 10
39.6180993738257
 20
43.94588493966967
 30
0.0
 10
39.61779666289685
 20
43.94051557922153
 30
0.0
 10
39.61534198955394
 20
43.93279120206541
 30
0.0
 10
39.61161551892594
 20
43.9255940395891
 30
0.0
 10
39.6080332541669
 20
43.92158352704341
 30
0.0
 10
39.60624210545005
 20
43.91957825248015
 30
0.0
  0
SPLINE
  5
163
330
1F
100
AcDbEntity
  8
0
  6
Continuous
 62
     7
370
    18
100
AcDbSpline
210
0.0
220
0.0
230
1.0
 70
     8
 71
     3
 72
    11
 73
     7
 74
     0
 42
0.0000000001
 43
0.0000000001
 40
0.0
 40
0.0
 40
0.0
 40
0.0
 40
0.2499956332359173
 40
0.4999932243050335
 40
0.749975170579226
 40
0.9999999999999998
 40
0.9999999999999998
 40
0.9999999999999998
 40
0.9999999999999998
 10
23.6302604480201
 20
43.91957825248021
 30
0.0
 10
23.62846928542956
 20
43.92158355775804
 30
0.0
 10
23.62488694622106
 20
43.9255941840182
 30
0.0
 10
23.62115896326707
 20
43.93279086630342
 30
0.0
 10
23.61870576624489
 20
43.94051575479116
 30
0.0
 10
23.61840216193573
 20
43.94588497203357
 30
0.0
 10
23.61825034676181
 20
43.94856981090058
 30
0.0
  0
SPLINE
  5
164
330
1F
100
AcDbEntity
  8
0
  6
Continuous
 62
     7
370
    18
100
AcDbSpline
210
0.0
220
0.0
230
1.0
 70
    24
 71
     1
 72
     4
 73
     2
 74
     0
 42
0.0000000001
 43
0.0000000001
 40
0.0
 40
0.0
 40
1.0
 40
1.0
 10
23.6302604480201
 20
43.91957825248021
 30
0.0
 10
23.64824978687239
 20
43.93756993797206
 30
0.0
  0
SPLINE
  5
165
330
1F
100
AcDbEntity
  8
0
  6
Continuous
 62
     7
370
    18
100
AcDbSpline
210
0.0
220
0.0
230
1.0
 70
     8
 71
     3
 72
    11
 73
     7
 74
     0
 42
0.0000000001
 43
0.0000000001
 40
0.0
 40
0.0
 40
0.0
 40
0.0
 40
0.2500309730121365
 40
0.5000000538467315
 40
0.7500207858303587
 40
0.9999999999999998
 40
0.9999999999999998
 40
0.9999999999999998
 40
0.9999999999999998
 10
23.6592508331207
 20
43.90756932454169
 30
0.0
 10
23.65656590190153
 20
43.90772043998719
 30
0.0
 10
23.65119670408582
 20
43.90802263347137
 30
0.0
 10
23.6434732087413
 20
43.91047920296203
 30
0.0
 10
23.63627510628286
 20
43.91420376659653
 30
0.0
 10
23.63226522311995
 20
43.91778685636036
 30
0.0
 10
23.6302604480201
 20
43.91957825248021
 30
0.0
  0
SPLINE
  5
166
330
1F
100
AcDbEntity
  8
0
  6
Continuous
 62
     7
370
    18
100
AcDbSpline
210
0.0
220
0.0
230
1.0
 70
     8
 71
     3
 72
    11
 73
     7
 74
     0
 42
0.0000000001
 43
0.0000000001
 40
0.0
 40
0.0
 40
0.0
 40
0.0
 40
0.2500072060707748
 40
0.5000015206882389
 40
0.7499982836609302
 40
1.0
 40
1.0
 40
1.0
 40
1.0
 10
39.60624210545005
 20
43.91957825248015
 30
0.0
 10
39.60423676350991
 20
43.9177869385248
 30
0.0
 10
39.60022618303378
 20
43.914204402982
 30
0.0
 10
39.59302843719168
 20
43.91047869917774
 30
0.0
 10
39.58530456506547
 20
43.90802290842273
 30
0.0
 10
39.5799354329918
 20
43.90772052016724
 30
0.0
 10
39.57725084035961
 20
43.90756932454164
 30
0.0
  0
LINE
  5
167
330
1F
100
AcDbEntity
  8
0
  6
Continuous
 62
     7
370
    18
100
AcDbLine
 10
23.64824978687242
 20
51.18876947816288
 30
0.0
 11
23.64824978687239
 21
43.93756993797206
 31
0.0
  0
LINE
  5
168
330
1F
100
AcDbEntity
  8
0
  6
Continuous
 62
     7
370
    18
100
AcDbLine
 10
23.64824978687239
 20
43.93756993797206
 30
0.0
 11
39.58825071328814
 21
43.937569937972
 31
0.0
  0
LINE
  5
169
330
1F
100
AcDbEntity
  8
0
  6
Continuous
 62
     7
370
    18
100
AcDbLine
 10
39.58825071328814
 20
43.937569937972
 30
0.0
 11
39.58825071328817
 21
51.18876947816282
 31
0.0
  0
LINE
  5
170
330
1F
100
AcDbEntity
  8
0
  6
Continuous
 62
     7
370
    18
100
AcDbLine
 10
39.61927856818508
 20
51.93876956076453
 30
0.0
 11
23.62132209794338
 21
51.93876956076458
 31
0.0
  0
LINE
  5
171
330
1F
100
AcDbEntity
  8
0
  6
Continuous
 62
     7
370
    18
100
AcDbLine
 10
39.61927856818508
 20
51.89776907440564
 30
0.0
 11
23.62132209794338
 21
51.8977690744057
 31
0.0
  0
LINE
  5
172
330
1F
100
AcDbEntity
  8
0
  6
Continuous
 62
     7
370
    18
100
AcDbLine
 10
39.61927856818508
 20
51.93876956076453
 30
0.0
 11
39.61927856818508
 21
51.89776907440564
 31
0.0
  0
LINE
  5
173
330
1F
100
AcDbEntity
  8
0
  6
Continuous
 62
     7
370
    18
100
AcDbLine
 10
23.62132209794338
 20
51.8977690744057
 30
0.0
 11
23.62132209794338
 21
51.93876956076458
 31
0.0
  0
LINE
  5
175
330
1F
100
AcDbEntity
  8
0
  6
Continuous
 62
     7
370
    18
100
AcDbLine
 10
39.61927856818508
 20
51.89776907440564
 30
0.0
 11
39.61927856818508
 21
51.18876947816282
 31
0.0
  0
LINE
  5
176
330
1F
100
AcDbEntity
  8
0
  6
Continuous
 62
     7
370
    18
100
AcDbLine
 10
23.62132209794338
 20
51.18876947816288
 30
0.0
 11
23.62132209794338
 21
51.8977690744057
 31
0.0
  0
LINE
  5
178
330
1F
100
AcDbEntity
  8
0
  6
Continuous
 62
     7
370
    18
100
AcDbLine
 10
23.59780172965268
 20
51.8977690744057
 30
0.0
 11
23.55780091174554
 21
51.8977690744057
 31
0.0
  0
LINE
  5
179
330
1F
100
AcDbEntity
  8
0
  6
Continuous
 62
     7
370
    18
100
AcDbLine
 10
23.55780091174554
 20
51.8977690744057
 30
0.0
 11
23.55780091174554
 21
51.18876947816288
 31
0.0
  0
LINE
  5
17A
330
1F
100
AcDbEntity
  8
0
  6
Continuous
 62
     7
370
    18
100
AcDbLine
 10
23.59780172965268
 20
51.8977690744057
 30
0.0
 11
23.59780172965268
 21
51.18876947816288
 31
0.0
  0
LINE
  5
17B
330
1F
100
AcDbEntity
  8
0
  6
Continuous
 62
     7
370
    18
100
AcDbLine
 10
23.59880139810442
 20
51.93876956076458
 30
0.0
 11
23.59880139810442
 21
51.89876991617722
 31
0.0
  0
LINE
  5
17C
330
1F
100
AcDbEntity
  8
0
  6
Continuous
 62
     7
370
    18
100
AcDbLine
 10
23.62132209794338
 20
51.89876991617722
 30
0.0
 11
23.59880139810442
 21
51.89876991617722
 31
0.0
  0
LINE
  5
17D
330
1F
100
AcDbEntity
  8
0
  6
Continuous
 62
     7
370
    18
100
AcDbLine
 10
23.62132209794338
 20
51.93876956076458
 30
0.0
 11
23.59880139810442
 21
51.93876956076458
 31
0.0
  0
ARC
  5
17E
330
1F
100
AcDbEntity
  8
0
  6
Continuous
 62
     7
370
    18
100
AcDbCircle
 10
23.59880083437875
 20
51.89776935647289
 30
0.0
 40
0.0410000084224866
100
AcDbArc
 50
89.9999999999992
 51
179.9999921532713
  0
ARC
  5
17F
330
1F
100
AcDbEntity
  8
0
  6
Continuous
 62
     7
370
    18
100
AcDbCircle
 10
23.59880083437875
 20
51.8977693620879
 30
0.0
 40
0.0009999999999977
100
AcDbArc
 50
89.99999999959209
 51
180.0000000008887
  0
LINE
  5
180
330
1F
100
AcDbEntity
  8
0
  6
Continuous
 62
     7
370
    18
100
AcDbLine
 10
39.68280092770268
 20
51.18876947816282
 30
0.0
 11
39.64280069645544
 21
51.18876947816282
 31
0.0
  0
LINE
  5
181
330
1F
100
AcDbEntity
  8
0
  6
Continuous
 62
     7
370
    18
100
AcDbLine
 10
39.68280092770269
 20
51.89776907440564
 30
0.0
 11
39.64280069645544
 21
51.89776907440564
 31
0.0
  0
LINE
  5
182
330
1F
100
AcDbEntity
  8
0
  6
Continuous
 62
     7
370
    18
100
AcDbLine
 10
39.64280069645544
 20
51.18876947816282
 30
0.0
 11
39.64280069645544
 21
51.89776907440564
 31
0.0
  0
LINE
  5
183
330
1F
100
AcDbEntity
  8
0
  6
Continuous
 62
     7
370
    18
100
AcDbLine
 10
39.68280092770268
 20
51.18876947816282
 30
0.0
 11
39.68280092770269
 21
51.89776907440564
 31
0.0
  0
LINE
  5
184
330
1F
100
AcDbEntity
  8
0
  6
Continuous
 62
     7
370
    18
100
AcDbLine
 10
39.64180073467375
 20
51.89876991617717
 30
0.0
 11
39.64180073467375
 21
51.93876956076453
 31
0.0
  0
LINE
  5
185
330
1F
100
AcDbEntity
  8
0
  6
Continuous
 62
     7
370
    18
100
AcDbLine
 10
39.64180073467375
 20
51.89876991617717
 30
0.0
 11
39.61927856818508
 21
51.89876991617717
 31
0.0
  0
LINE
  5
186
330
1F
100
AcDbEntity
  8
0
  6
Continuous
 62
     7
370
    18
100
AcDbLine
 10
39.64180073467375
 20
51.93876956076453
 30
0.0
 11
39.61927856818508
 21
51.93876956076453
 31
0.0
  0
ARC
  5
187
330
1F
100
AcDbEntity
  8
0
  6
Continuous
 62
     7
370
    18
100
AcDbCircle
 10
39.64180083437875
 20
51.8977693620879
 30
0.0
 40
0.0010000000000154
100
AcDbArc
 50
0.000000001024916
 51
90.00000000030452
  0
ARC
  5
188
330
1F
100
AcDbEntity
  8
0
  6
Continuous
 62
     7
370
    18
100
AcDbCircle
 10
39.64180083437874
 20
51.89776935647292
 30
0.0
 40
0.0410000084224951
100
AcDbArc
 50
0.0000078467200573
 51
89.99999999998184
  0
LINE
  5
18C
330
1F
100
AcDbEntity
  8
0
  6
Continuous
 62
     7
370
    18
100
AcDbLine
 10
39.68280092770265
 20
51.16450874509157
 30
0.0
 11
39.64280069645539
 21
51.16450874509157
 31
0.0
  0
LINE
  5
18D
330
1F
100
AcDbEntity
  8
0
  6
Continuous
 62
     7
370
    18
100
AcDbLine
 10
39.68280092770265
 20
51.16450874509157
 30
0.0
 11
39.68280092770265
 21
51.18876947816284
 31
0.0
  0
LINE
  5
18E
330
1F
100
AcDbEntity
  8
0
  6
Continuous
 62
     7
370
    18
100
AcDbLine
 10
39.64280069645539
 20
51.16450874509157
 30
0.0
 11
39.64280069645539
 21
51.18876947816284
 31
0.0
  0
LINE
  5
18F
330
1F
100
AcDbEntity
  8
0
  6
Continuous
 62
     7
370
    18
100
AcDbLine
 10
23.55780091174547
 20
43.93876907078626
 30
0.0
 11
23.59780172965261
 21
43.93876907078626
 31
0.0
  0
LINE
  5
190
330
1F
100
AcDbEntity
  8
0
  6
Continuous
 62
     7
370
    18
100
AcDbLine
 10
23.59780172965261
 20
44.18876948942676
 30
0.0
 11
23.55780091174547
 21
44.18876948942676
 31
0.0
  0
LINE
  5
191
330
1F
100
AcDbEntity
  8
0
  6
Continuous
 62
     7
370
    18
100
AcDbLine
 10
23.55780091174547
 20
44.18876948942676
 30
0.0
 11
23.55780091174547
 21
43.93876907078626
 31
0.0
  0
LINE
  5
192
330
1F
100
AcDbEntity
  8
0
  6
Continuous
 62
     7
370
    18
100
AcDbLine
 10
23.59780172965261
 20
43.93876907078626
 30
0.0
 11
23.59780172965261
 21
44.18876948942676
 31
0.0
  0
LINE
  5
193
330
1F
100
AcDbEntity
  8
0
  6
Continuous
 62
     7
370
    18
100
AcDbLine
 10
23.5578009117455
 20
51.16450874509162
 30
0.0
 11
23.55780091174547
 21
44.18876948942676
 31
0.0
  0
LINE
  5
194
330
1F
100
AcDbEntity
  8
0
  6
Continuous
 62
     7
370
    18
100
AcDbLine
 10
23.59780172965264
 20
51.16450874509162
 30
0.0
 11
23.59780172965261
 21
44.18876948942676
 31
0.0
  0
LINE
  5
195
330
1F
100
AcDbEntity
  8
0
  6
Continuous
 62
     7
370
    18
100
AcDbLine
 10
39.68280092770262
 20
44.1887694894267
 30
0.0
 11
39.64280069645537
 21
44.1887694894267
 31
0.0
  0
LINE
  5
196
330
1F
100
AcDbEntity
  8
0
  6
Continuous
 62
     7
370
    18
100
AcDbLine
 10
39.64280069645536
 20
43.9387690707862
 30
0.0
 11
39.68280092770261
 21
43.9387690707862
 31
0.0
  0
LINE
  5
197
330
1F
100
AcDbEntity
  8
0
  6
Continuous
 62
     7
370
    18
100
AcDbLine
 10
39.68280092770261
 20
43.9387690707862
 30
0.0
 11
39.68280092770262
 21
44.1887694894267
 31
0.0
  0
LINE
  5
198
330
1F
100
AcDbEntity
  8
0
  6
Continuous
 62
     7
370
    18
100
AcDbLine
 10
39.64280069645537
 20
44.1887694894267
 30
0.0
 11
39.64280069645536
 21
43.9387690707862
 31
0.0
  0
LINE
  5
199
330
1F
100
AcDbEntity
  8
0
  6
Continuous
 62
     7
370
    18
100
AcDbLine
 10
39.68280092770262
 20
44.1887694894267
 30
0.0
 11
39.68280092770265
 21
51.16450874509157
 31
0.0
  0
LINE
  5
19A
330
1F
100
AcDbEntity
  8
0
  6
Continuous
 62
     7
370
    18
100
AcDbLine
 10
39.64280069645537
 20
44.1887694894267
 30
0.0
 11
39.64280069645539
 21
51.16450874509157
 31
0.0
  0
LINE
  5
19B
330
1F
100
AcDbEntity
  8
0
  6
Continuous
 62
     7
370
    18
100
AcDbLine
 10
23.59880139810438
 20
51.89298662298635
 30
0.0
 11
23.59880139810435
 21
43.93876907078626
 31
0.0
  0
LINE
  5
19C
330
1F
100
AcDbEntity
  8
0
  6
Continuous
 62
     7
370
    18
100
AcDbLine
 10
23.5978017296526
 20
43.93876907078626
 30
0.0
 11
23.59880139810435
 21
43.93876907078626
 31
0.0
  0
SPLINE
  5
19D
330
1F
100
AcDbEntity
  8
0
  6
Continuous
 62
     7
370
    18
100
AcDbSpline
210
0.0
220
0.0
230
1.0
 70
    24
 71
     1
 72
     4
 73
     2
 74
     0
 42
0.0000000001
 43
0.0000000001
 40
0.0
 40
0.0
 40
1.0
 40
1.0
 10
23.61332240368981
 20
51.89847658623247
 30
0.0
 10
23.60358384952376
 20
51.89776907440572
 30
0.0
  0
SPLINE
  5
19E
330
1F
100
AcDbEntity
  8
0
  6
Continuous
 62
     7
370
    18
100
AcDbSpline
210
0.0
220
0.0
230
1.0
 70
    24
 71
     1
 72
     4
 73
     2
 74
     0
 42
0.0000000001
 43
0.0000000001
 40
0.0
 40
0.0
 40
1.0
 40
1.0
 10
39.63701769659444
 20
51.89776907440566
 30
0.0
 10
39.62727884909843
 20
51.89847658623242
 30
0.0
  0
LINE
  5
19F
330
1F
100
AcDbEntity
  8
0
  6
Continuous
 62
     7
370
    18
100
AcDbLine
 10
39.64180073467368
 20
43.9387690707862
 30
0.0
 11
39.64180073467371
 21
51.89298662298629
 31
0.0
  0
LINE
  5
1A0
330
1F
100
AcDbEntity
  8
0
  6
Continuous
 62
     7
370
    18
100
AcDbLine
 10
39.64180073467368
 20
43.9387690707862
 30
0.0
 11
39.64280069645536
 21
43.9387690707862
 31
0.0
  0
LINE
  5
1A1
330
1F
100
AcDbEntity
  8
0
  6
Continuous
 62
     7
370
    18
100
AcDbLine
 10
39.64180073467368
 20
43.9387690707862
 30
0.0
 11
39.61691667546979
 21
43.9387690707862
 31
0.0
  0
LINE
  5
1A2
330
1F
100
AcDbEntity
  8
0
  6
Continuous
 62
     7
370
    18
100
AcDbLine
 10
23.61958558467031
 20
43.93876907078626
 30
0.0
 11
23.59880139810435
 21
43.93876907078626
 31
0.0
  0
LINE
  5
1A3
330
1F
100
AcDbEntity
  8
0
  6
Continuous
 62
     7
370
    18
100
AcDbLine
 10
39.64180073467371
 20
51.89298662298629
 30
0.0
 11
39.63701769659444
 21
51.89776907440567
 31
0.0
  0
LINE
  5
1A4
330
1F
100
AcDbEntity
  8
0
  6
Continuous
 62
     7
370
    18
100
AcDbLine
 10
23.60358384952376
 20
51.89776907440573
 30
0.0
 11
23.59880139810438
 21
51.89298662298635
 31
0.0
  0
LINE
  5
1A5
330
1F
100
AcDbEntity
  8
0
  6
Continuous
 62
     7
370
    18
100
AcDbLine
 10
21.13046276589616
 20
23.30668346773272
 30
0.0
 11
21.13046276589616
 21
23.26668264982559
 31
0.0
  0
LINE
  5
1A6
330
1F
100
AcDbEntity
  8
0
  6
Continuous
 62
     7
370
    18
100
AcDbLine
 10
20.42146316965334
 20
23.26668264982558
 30
0.0
 11
21.13046276589616
 21
23.26668264982559
 31
0.0
  0
SPLINE
  5
1A7
330
1F
100
AcDbEntity
  8
0
  6
Continuous
 62
     7
370
    18
100
AcDbSpline
210
0.0
220
0.0
230
1.0
 70
    24
 71
     1
 72
     4
 73
     2
 74
     0
 42
0.0000000001
 43
0.0000000001
 40
0.0
 40
0.0
 40
1.0
 40
1.0
 10
20.42146316965333
 20
23.30668346773273
 30
0.0
 10
20.42146316965333
 20
23.26668264982559
 30
0.0
  0
LINE
  5
1A8
330
1F
100
AcDbEntity
  8
0
  6
Continuous
 62
     7
370
    18
100
AcDbLine
 10
20.42146316965334
 20
23.30668346773272
 30
0.0
 11
21.13046276589616
 21
23.30668346773272
 31
0.0
  0
SPLINE
  5
1A9
330
1F
100
AcDbEntity
  8
0
  6
Continuous
 62
     7
370
    18
100
AcDbSpline
210
0.0
220
0.0
230
1.0
 70
    24
 71
     1
 72
     4
 73
     2
 74
     0
 42
0.0000000001
 43
0.0000000001
 40
0.0
 40
0.0
 40
1.0
 40
1.0
 10
20.42146316965325
 20
44.01668337071326
 30
0.0
 10
20.42146316965325
 20
43.97668255280612
 30
0.0
  0
LINE
  5
1AA
330
1F
100
AcDbEntity
  8
0
  6
Continuous
 62
     7
370
    18
100
AcDbLine
 10
21.1304627658961
 20
44.01668337071326
 30
0.0
 11
21.1304627658961
 21
43.97668255280613
 31
0.0
  0
LINE
  5
1AB
330
1F
100
AcDbEntity
  8
0
  6
Continuous
 62
     7
370
    18
100
AcDbLine
 10
21.1304627658961
 20
43.97668255280613
 30
0.0
 11
20.42146316965325
 21
43.97668255280612
 31
0.0
  0
LINE
  5
1AC
330
1F
100
AcDbEntity
  8
0
  6
Continuous
 62
     7
370
    18
100
AcDbLine
 10
21.1304627658961
 20
44.01668337071326
 30
0.0
 11
20.42146316965325
 21
44.01668337071325
 31
0.0
  0
LINE
  5
1AD
330
1F
100
AcDbEntity
  8
0
  6
Continuous
 62
     7
370
    18
100
AcDbLine
 10
41.36189603731927
 20
43.97006972253175
 30
0.0
 11
41.36189603731927
 21
43.93006890462461
 31
0.0
  0
LINE
  5
1AE
330
1F
100
AcDbEntity
  8
0
  6
Continuous
 62
     7
370
    18
100
AcDbLine
 10
41.36189603731927
 20
43.97006972253175
 30
0.0
 11
39.68280092770259
 21
43.97006972253175
 31
0.0
  0
LINE
  5
1AF
330
1F
100
AcDbEntity
  8
0
  6
Continuous
 62
     7
370
    18
100
AcDbLine
 10
23.55780091174544
 20
43.97006972253182
 30
0.0
 11
21.13046276589616
 21
43.97006972253183
 31
0.0
  0
LINE
  5
1B0
330
1F
100
AcDbEntity
  8
0
  6
Continuous
 62
     7
370
    18
100
AcDbLine
 10
41.36189603731927
 20
43.93006890462461
 30
0.0
 11
39.6136278601291
 21
43.93006890462461
 31
0.0
  0
LINE
  5
1B1
330
1F
100
AcDbEntity
  8
0
  6
Continuous
 62
     7
370
    18
100
AcDbLine
 10
23.62287322669117
 20
43.93006890462467
 30
0.0
 11
21.13046276589616
 21
43.93006890462468
 31
0.0
  0
LINE
  5
1B3
330
1F
100
AcDbEntity
  8
0
  6
Continuous
 62
     7
370
    18
100
AcDbLine
 10
41.36189603731919
 20
23.26006981955122
 30
0.0
 11
21.1304627658961
 21
23.26006981955129
 31
0.0
  0
LINE
  5
1B4
330
1F
100
AcDbEntity
  8
0
  6
Continuous
 62
     7
370
    18
100
AcDbLine
 10
41.36189603731919
 20
23.22006900164407
 30
0.0
 11
21.1304627658961
 21
23.22006900164415
 31
0.0
  0
LINE
  5
1B5
330
1F
100
AcDbEntity
  8
Layer2
  6
Continuous
 62
     7
370
    18
100
AcDbLine
 10
20.30594045084823
 20
23.18392253921118
 30
0.0
 11
20.30594045084827
 21
33.74753939975774
 31
0.0
  0
LINE
  5
1B6
330
1F
100
AcDbEntity
  8
Layer2
  6
Continuous
 62
     7
370
    18
100
AcDbLine
 10
20.3059404508483
 20
42.86326030271782
 30
0.0
 11
20.30594045084831
 21
43.79687716326706
 31
0.0
  0
LINE
  5
1B8
330
1F
100
AcDbEntity
  8
Layer2
  6
Continuous
 62
     7
370
    18
100
AcDbLine
 10
20.34594126875536
 20
23.18392253921118
 30
0.0
 11
20.34594126875541
 21
33.76696745634932
 31
0.0
  0
LINE
  5
1B9
330
1F
100
AcDbEntity
  8
Layer2
  6
Continuous
 62
     7
370
    18
100
AcDbLine
 10
20.34594126875544
 20
42.84383224612624
 30
0.0
 11
20.34594126875544
 21
43.79687716326706
 31
0.0
  0
LINE
  5
1BA
330
1F
100
AcDbEntity
  8
Layer2
  6
Continuous
 62
     7
370
    18
100
AcDbLine
 10
20.30594045084831
 20
43.79687716326706
 30
0.0
 11
20.34594126875544
 21
43.79687716326706
 31
0.0
  0
SPLINE
  5
1BB
330
1F
100
AcDbEntity
  8
0
  6
Continuous
 62
     7
370
    18
100
AcDbSpline
210
0.0
220
0.0
230
1.0
 70
    24
 71
     1
 72
     4
 73
     2
 74
     0
 42
0.0000000001
 43
0.0000000001
 40
0.0
 40
0.0
 40
1.0
 40
1.0
 10
20.40198371468166
 20
23.30768313618448
 30
0.0
 10
20.42146316965333
 20
23.30668346773273
 30
0.0
  0
SPLINE
  5
1BC
330
1F
100
AcDbEntity
  8
0
  6
Continuous
 62
     7
370
    18
100
AcDbSpline
210
0.0
220
0.0
230
1.0
 70
     8
 71
     3
 72
    11
 73
     7
 74
     0
 42
0.0000000001
 43
0.0000000001
 40
0.0
 40
0.0
 40
0.0
 40
0.0
 40
0.2499923556562321
 40
0.4999983793245794
 40
0.7500076443437679
 40
1.0
 40
1.0
 40
1.0
 40
1.0
 10
20.40198371468166
 20
23.30768313618448
 30
0.0
 10
20.4036068971814
 20
23.30231077802152
 30
0.0
 10
20.40685335092631
 20
23.29156576796881
 30
0.0
 10
20.41172147435454
 20
23.27801286546655
 30
0.0
 10
20.41659449093853
 20
23.26853185510413
 30
0.0
 10
20.41984031333813
 20
23.26729903768771
 30
0.0
 10
20.42146316965333
 20
23.26668264982559
 30
0.0
  0
LINE
  5
1BD
330
1F
100
AcDbEntity
  8
0
  6
Continuous
 62
     7
370
    18
100
AcDbLine
 10
41.36189603731926
 20
43.93006890462461
 30
0.0
 11
41.36189603731926
 21
43.92906923617288
 31
0.0
  0
SPLINE
  5
1BE
330
1F
100
AcDbEntity
  8
0
  6
Continuous
 62
     7
370
    18
100
AcDbSpline
210
0.0
220
0.0
230
1.0
 70
    24
 71
     1
 72
     4
 73
     2
 74
     0
 42
0.0000000001
 43
0.0000000001
 40
0.0
 40
0.0
 40
1.0
 40
1.0
 10
20.42146316965325
 20
43.97668255280612
 30
0.0
 10
20.40198371468158
 20
43.97568288435438
 30
0.0
  0
SPLINE
  5
1BF
330
1F
100
AcDbEntity
  8
0
  6
Continuous
 62
     7
370
    18
100
AcDbSpline
210
0.0
220
0.0
230
1.0
 70
     8
 71
     3
 72
    11
 73
     7
 74
     0
 42
0.0000000001
 43
0.0000000001
 40
0.0
 40
0.0
 40
0.0
 40
0.0
 40
0.2499923556562321
 40
0.5000016206754207
 40
0.7500076443437679
 40
1.0
 40
1.0
 40
1.0
 40
1.0
 10
20.42146316965325
 20
44.01668337071326
 30
0.0
 10
20.41984031333806
 20
44.01606698285114
 30
0.0
 10
20.41659449093845
 20
44.01483416543472
 30
0.0
 10
20.41172147435448
 20
44.00535315507229
 30
0.0
 10
20.40685335092623
 20
43.99180025257003
 30
0.0
 10
20.40360689718132
 20
43.98105524251734
 30
0.0
 10
20.40198371468158
 20
43.97568288435438
 30
0.0
  0
LINE
  5
1C1
330
1F
100
AcDbEntity
  8
0
  6
Continuous
 62
     7
370
    18
100
AcDbLine
 10
47.5059844736186
 20
23.26106948800294
 30
0.0
 11
20.40198371468158
 21
23.26106948800304
 31
0.0
  0
LINE
  5
1C3
330
1F
100
AcDbEntity
  8
Layer2
  6
Continuous
 62
     7
370
    18
100
AcDbLine
 10
20.34594126875544
 20
43.79687716326706
 30
0.0
 11
20.34694093720719
 21
43.79687716326706
 31
0.0
  0
LINE
  5
1C4
330
1F
100
AcDbEntity
  8
0
  6
Continuous
 62
     7
370
    18
100
AcDbLine
 10
41.36189603731926
 20
43.92906923617288
 30
0.0
 11
41.36189603731926
 21
43.90756932454168
 31
0.0
  0
LINE
  5
1C5
330
1F
100
AcDbEntity
  8
Layer2
  6
Continuous
 62
     7
370
    18
100
AcDbLine
 10
20.37446232594442
 20
43.79687716326706
 30
0.0
 11
20.34694093720719
 21
43.79687716326706
 31
0.0
  0
SPLINE
  5
1CA
330
1F
100
AcDbEntity
  8
WATER
  6
Continuous
 62
     7
370
    18
100
AcDbSpline
210
0.0
220
0.0
230
1.0
 70
    24
 71
     1
 72
     4
 73
     2
 74
     0
 42
0.0000000001
 43
0.0000000001
 40
0.0
 40
0.0
 40
1.0
 40
1.0
 10
68.44641792794448
 20
43.97006972253165
 30
0.0
 10
68.44641792794449
 20
43.93006890462451
 30
0.0
  0
LINE
  5
1CB
330
1F
100
AcDbEntity
  8
WATER
  6
Continuous
 62
     7
370
    18
100
AcDbLine
 10
67.73741833170167
 20
43.97006972253166
 30
0.0
 11
67.73741833170167
 21
43.93006890462451
 31
0.0
  0
LINE
  5
1CC
330
1F
100
AcDbEntity
  8
WATER
  6
Continuous
 62
     7
370
    18
100
AcDbLine
 10
67.73741833170167
 20
43.93006890462451
 30
0.0
 11
68.44641792794449
 21
43.93006890462451
 31
0.0
  0
LINE
  5
1CD
330
1F
100
AcDbEntity
  8
WATER
  6
Continuous
 62
     7
370
    18
100
AcDbLine
 10
67.73741833170167
 20
43.97006972253166
 30
0.0
 11
68.44641792794449
 21
43.97006972253166
 31
0.0
  0
LINE
  5
1CE
330
1F
100
AcDbEntity
  8
0
  6
Continuous
 62
     7
370
    18
100
AcDbLine
 10
67.73741833170159
 20
23.26006981955111
 30
0.0
 11
67.73741833170159
 21
23.22006900164398
 31
0.0
  0
SPLINE
  5
1CF
330
1F
100
AcDbEntity
  8
0
  6
Continuous
 62
     7
370
    18
100
AcDbSpline
210
0.0
220
0.0
230
1.0
 70
    24
 71
     1
 72
     4
 73
     2
 74
     0
 42
0.0000000001
 43
0.0000000001
 40
0.0
 40
0.0
 40
1.0
 40
1.0
 10
68.44641792794442
 20
23.2600698195511
 30
0.0
 10
68.4464179279444
 20
23.22006900164397
 30
0.0
  0
LINE
  5
1D0
330
1F
100
AcDbEntity
  8
0
  6
Continuous
 62
     7
370
    18
100
AcDbLine
 10
68.44641792794442
 20
23.22006900164398
 30
0.0
 11
67.73741833170159
 21
23.22006900164398
 31
0.0
  0
LINE
  5
1D1
330
1F
100
AcDbEntity
  8
0
  6
Continuous
 62
     7
370
    18
100
AcDbLine
 10
68.44641792794442
 20
23.26006981955111
 30
0.0
 11
67.73741833170159
 21
23.26006981955111
 31
0.0
  0
LINE
  5
1D2
330
1F
100
AcDbEntity
  8
WATER
  6
Continuous
 62
     7
370
    18
100
AcDbLine
 10
47.50598447361869
 20
43.93006890462459
 30
0.0
 11
47.50598447361869
 21
43.97006972253173
 31
0.0
  0
LINE
  5
1D3
330
1F
100
AcDbEntity
  8
0
  6
Continuous
 62
     7
370
    18
100
AcDbLine
 10
47.50598447361869
 20
43.93006890462459
 30
0.0
 11
67.73741833170167
 21
43.93006890462451
 31
0.0
  0
LINE
  5
1D4
330
1F
100
AcDbEntity
  8
0
  6
Continuous
 62
     7
370
    18
100
AcDbLine
 10
47.50598447361869
 20
43.97006972253173
 30
0.0
 11
68.45944177749188
 21
43.97006972253165
 31
0.0
  0
LINE
  5
1D6
330
1F
100
AcDbEntity
  8
0
  6
Continuous
 62
     7
370
    18
100
AcDbLine
 10
41.36189603731919
 20
23.22006900164407
 30
0.0
 11
67.73741833170159
 21
23.22006900164398
 31
0.0
  0
LINE
  5
1D7
330
1F
100
AcDbEntity
  8
0
  6
Continuous
 62
     7
370
    18
100
AcDbLine
 10
47.50598447361861
 20
23.26006981955119
 30
0.0
 11
67.73741833170159
 21
23.26006981955111
 31
0.0
  0
LINE
  5
1D8
330
1F
100
AcDbEntity
  8
0
  6
Continuous
 62
     7
370
    18
100
AcDbLine
 10
68.56194064674944
 20
23.28859205005987
 30
0.0
 11
68.52193982884232
 21
23.28859205005987
 31
0.0
  0
LINE
  5
1D9
330
1F
100
AcDbEntity
  8
WATER
  6
Continuous
 62
     7
370
    18
100
AcDbLine
 10
68.52193982884239
 20
43.90154667411575
 30
0.0
 11
68.56194064674953
 21
43.90154667411575
 31
0.0
  0
LINE
  5
1DA
330
1F
100
AcDbEntity
  8
WATER
  6
Continuous
 62
     7
370
    18
100
AcDbLine
 10
68.52193982884239
 20
43.90154667411575
 30
0.0
 11
68.52193982884236
 21
37.23006947692297
 31
0.0
  0
LINE
  5
1DC
330
1F
100
AcDbEntity
  8
0
  6
Continuous
 62
     7
370
    18
100
AcDbLine
 10
68.52193982884232
 20
24.60006964642543
 30
0.0
 11
68.52193982884232
 21
23.28859205005987
 31
0.0
  0
LINE
  5
1DD
330
1F
100
AcDbEntity
  8
WATER
  6
Continuous
 62
     7
370
    18
100
AcDbLine
 10
68.56194064674953
 20
43.90154667411575
 30
0.0
 11
68.56194064674951
 21
37.23006947692297
 31
0.0
  0
LINE
  5
1DF
330
1F
100
AcDbEntity
  8
0
  6
Continuous
 62
     7
370
    18
100
AcDbLine
 10
68.56194064674944
 20
24.35506933002333
 30
0.0
 11
68.56194064674944
 21
23.28859205005987
 31
0.0
  0
LINE
  5
1E0
330
1F
100
AcDbEntity
  8
WATER
  6
Continuous
 62
     7
370
    18
100
AcDbLine
 10
47.50598447361868
 20
43.92906923617284
 30
0.0
 11
47.50598447361868
 21
43.93006890462459
 31
0.0
  0
LINE
  5
1E1
330
1F
100
AcDbEntity
  8
0
  6
Continuous
 62
     7
370
    18
100
AcDbLine
 10
47.50598447361868
 20
43.92906923617284
 30
0.0
 11
68.3939400275071
 21
43.92906923617277
 31
0.0
  0
SPLINE
  5
1E2
330
1F
100
AcDbEntity
  8
WATER
  6
Continuous
 62
     7
370
    18
100
AcDbSpline
210
0.0
220
0.0
230
1.0
 70
    24
 71
     1
 72
     4
 73
     2
 74
     0
 42
0.0000000001
 43
0.0000000001
 40
0.0
 40
0.0
 40
1.0
 40
1.0
 10
68.44641792794449
 20
43.93006890462451
 30
0.0
 10
68.46589503627662
 20
43.92906923617275
 30
0.0
  0
SPLINE
  5
1E3
330
1F
100
AcDbEntity
  8
WATER
  6
Continuous
 62
     7
370
    18
100
AcDbSpline
210
0.0
220
0.0
230
1.0
 70
     8
 71
     3
 72
    11
 73
     7
 74
     0
 42
0.0000000001
 43
0.0000000001
 40
0.0
 40
0.0
 40
0.0
 40
0.0
 40
0.2500022475134114
 40
0.5000029571383117
 40
0.7500059819003009
 40
1.0
 40
1.0
 40
1.0
 40
1.0
 10
68.44641792794448
 20
43.97006972253165
 30
0.0
 10
68.44804101551322
 20
43.9694534065581
 30
0.0
 10
68.4512871806663
 20
43.96822077840229
 30
0.0
 10
68.45615652469479
 20
43.95873936742336
 30
0.0
 10
68.46102564997427
 20
43.94518645279882
 30
0.0
 10
68.46427192700136
 20
43.93444157719741
 30
0.0
 10
68.46589503627662
 20
43.92906923617275
 30
0.0
  0
SPLINE
  5
1E5
330
1F
100
AcDbEntity
  8
0
  6
Continuous
 62
     7
370
    18
100
AcDbSpline
210
0.0
220
0.0
230
1.0
 70
    24
 71
     1
 72
     4
 73
     2
 74
     0
 42
0.0000000001
 43
0.0000000001
 40
0.0
 40
0.0
 40
1.0
 40
1.0
 10
68.46589503627652
 20
23.26106948800286
 30
0.0
 10
68.44641792794442
 20
23.2600698195511
 30
0.0
  0
LINE
  5
1E6
330
1F
100
AcDbEntity
  8
0
  6
Continuous
 62
     7
370
    18
100
AcDbLine
 10
47.5059844736186
 20
23.26106948800294
 30
0.0
 11
68.46589503627654
 21
23.26106948800287
 31
0.0
  0
SPLINE
  5
1E7
330
1F
100
AcDbEntity
  8
0
  6
Continuous
 62
     7
370
    18
100
AcDbSpline
210
0.0
220
0.0
230
1.0
 70
     8
 71
     3
 72
    11
 73
     7
 74
     0
 42
0.0000000001
 43
0.0000000001
 40
0.0
 40
0.0
 40
0.0
 40
0.0
 40
0.2499940180996992
 40
0.4999970428616884
 40
0.7499977524865887
 40
1.0
 40
1.0
 40
1.0
 40
1.0
 10
68.46589503627652
 20
23.26106948800286
 30
0.0
 10
68.46427192700129
 20
23.2556971469782
 30
0.0
 10
68.46102564997417
 20
23.24495227137679
 30
0.0
 10
68.45615652469473
 20
23.23139935675226
 30
0.0
 10
68.45128718066617
 20
23.22191794577332
 30
0.0
 10
68.44804101551315
 20
23.2206853176175
 30
0.0
 10
68.4464179279444
 20
23.22006900164397
 30
0.0
  0
LINE
  5
1E8
330
1F
100
AcDbEntity
  8
WATER
  6
Continuous
 62
     7
370
    18
100
AcDbLine
 10
68.52094016039065
 20
43.90154667411576
 30
0.0
 11
68.52193982884239
 21
43.90154667411576
 31
0.0
  0
LINE
  5
1E9
330
1F
100
AcDbEntity
  8
0
  6
Continuous
 62
     7
370
    18
100
AcDbLine
 10
68.5219398288423
 20
23.28859205005987
 30
0.0
 11
68.52094016039057
 21
23.28859205005987
 31
0.0
  0
LINE
  5
1EB
330
1F
100
AcDbEntity
  8
0
  6
Continuous
 62
     7
370
    18
100
AcDbLine
 10
68.49341877165333
 20
23.28859205005987
 30
0.0
 11
68.46589503627654
 21
23.26106948800287
 31
0.0
  0
LINE
  5
1EC
330
1F
100
AcDbEntity
  8
0
  6
Continuous
 62
     7
370
    18
100
AcDbLine
 10
68.49341877165333
 20
23.28859205005987
 30
0.0
 11
68.52094016039057
 21
23.28859205005987
 31
0.0
  0
LINE
  5
1ED
330
1F
100
AcDbEntity
  8
WATER
  6
Continuous
 62
     7
370
    18
100
AcDbLine
 10
68.49341877165341
 20
43.90154667411576
 30
0.0
 11
68.52094016039065
 21
43.90154667411576
 31
0.0
  0
LINE
  5
1EE
330
1F
100
AcDbEntity
  8
WATER
  6
Continuous
 62
     7
370
    18
100
AcDbLine
 10
68.49341877165341
 20
43.90154667411576
 30
0.0
 11
68.46589503627662
 21
43.92906923617277
 31
0.0
  0
LINE
  5
1EF
330
1F
100
AcDbEntity
  8
WATER
  6
Continuous
 62
     7
370
    18
100
AcDbLine
 10
47.50598447361868
 20
43.90756932454166
 30
0.0
 11
47.50598447361868
 21
43.92906923617284
 31
0.0
  0
LINE
  5
1F0
330
1F
100
AcDbEntity
  8
0
  6
Continuous
 62
     7
370
    18
100
AcDbLine
 10
47.3664180859015
 20
43.9755690723361
 30
0.0
 11
41.50146242503644
 21
43.97556907233613
 31
0.0
  0
LINE
  5
1F1
330
1F
100
AcDbEntity
  8
WATER
  6
Continuous
 62
     7
370
    18
100
AcDbLine
 10
47.3664180859015
 20
43.93556942774874
 30
0.0
 11
47.3664180859015
 21
43.9755690723361
 31
0.0
  0
LINE
  5
1F2
330
1F
100
AcDbEntity
  8
0
  6
Continuous
 62
     7
370
    18
100
AcDbLine
 10
41.50146242503644
 20
43.93556942774877
 30
0.0
 11
41.50146242503644
 21
43.97556907233613
 31
0.0
  0
LINE
  5
1F3
330
1F
100
AcDbEntity
  8
0
  6
Continuous
 62
     7
370
    18
100
AcDbLine
 10
47.3664180859015
 20
43.93556942774874
 30
0.0
 11
41.50146242503644
 21
43.93556942774877
 31
0.0
  0
LINE
  5
1F8
330
1F
100
AcDbEntity
  8
0
  6
Continuous
 62
     7
370
    18
100
AcDbLine
 10
47.3664180859015
 20
43.93456975929701
 30
0.0
 11
41.50146242503644
 21
43.93456975929702
 31
0.0
  0
LINE
  5
1F9
330
1F
100
AcDbEntity
  8
WATER
  6
Continuous
 62
     7
370
    18
100
AcDbLine
 10
47.3664180859015
 20
43.93556942774874
 30
0.0
 11
47.3664180859015
 21
43.93456975929701
 31
0.0
  0
LINE
  5
1FA
330
1F
100
AcDbEntity
  8
0
  6
Continuous
 62
     7
370
    18
100
AcDbLine
 10
41.50146242503644
 20
43.93456975929702
 30
0.0
 11
41.50146242503644
 21
43.93556942774877
 31
0.0
  0
LINE
  5
200
330
1F
100
AcDbEntity
  8
WATER
  6
Continuous
 62
     7
370
    18
100
AcDbLine
 10
47.3664180859015
 20
43.93456975929701
 30
0.0
 11
47.3664180859015
 21
43.90756932454166
 31
0.0
  0
LINE
  5
201
330
1F
100
AcDbEntity
  8
0
  6
Continuous
 62
     7
370
    18
100
AcDbLine
 10
41.50146242503644
 20
43.90756932454168
 30
0.0
 11
41.50146242503644
 21
43.93456975929702
 31
0.0
  0
LINE
  5
204
330
1F
100
AcDbEntity
  8
Layer2
  6
Continuous
 62
     7
370
    18
100
AcDbLine
 10
20.00682603957689
 20
42.74139657231155
 30
0.0
 11
19.22557575798014
 21
42.74139657231155
 31
0.0
  0
LINE
  5
205
330
1F
100
AcDbEntity
  8
Layer2
  6
Continuous
 62
     7
370
    18
100
AcDbLine
 10
20.00682603957689
 20
42.73339629139814
 30
0.0
 11
19.22557575798014
 21
42.73339629139814
 31
0.0
  0
LINE
  5
207
330
1F
100
AcDbEntity
  8
Layer2
  6
Continuous
 62
     7
370
    18
100
AcDbLine
 10
20.14719967130205
 20
42.74289959494851
 30
0.0
 11
20.14719967130202
 21
33.86789982761782
 31
0.0
  0
LINE
  5
208
330
1F
100
AcDbEntity
  8
Layer2
  6
Continuous
 62
     7
370
    18
100
AcDbLine
 10
20.39720126326233
 20
42.74289959494851
 30
0.0
 11
20.39720126326229
 21
33.86789982761782
 31
0.0
  0
LINE
  5
20A
330
1F
100
AcDbEntity
  8
Layer2
  6
Continuous
 62
     7
370
    18
100
AcDbLine
 10
16.9912017829923
 20
42.74289959494852
 30
0.0
 11
16.99120178299227
 21
33.86789982761783
 31
0.0
  0
LINE
  5
216
330
1F
100
AcDbEntity
  8
WATER
  6
Continuous
 62
     7
370
    18
100
AcDbLine
 10
68.34615775282536
 20
43.86656883818266
 30
0.0
 11
68.39394002750712
 21
43.81878656350091
 31
0.0
  0
LINE
  5
217
330
1F
100
AcDbEntity
  8
0
  6
Continuous
 62
     7
370
    18
100
AcDbLine
 10
68.45944177749186
 20
43.86656883818266
 30
0.0
 11
20.52372268167615
 21
43.86656883818282
 31
0.0
  0
LINE
  5
218
330
1F
100
AcDbEntity
  8
0
  6
Continuous
 62
     7
370
    18
100
AcDbLine
 10
20.4759404069944
 20
23.41796580885633
 30
0.0
 11
20.52372268167615
 21
23.37018353417458
 31
0.0
  0
LINE
  5
219
330
1F
100
AcDbEntity
  8
0
  6
Continuous
 62
     7
370
    18
100
AcDbLine
 10
20.4759404069944
 20
23.41796580885633
 30
0.0
 11
20.47594040699433
 21
43.8654002116826
 31
0.0
  0
LINE
  5
21A
330
1F
100
AcDbEntity
  8
0
  6
Continuous
 62
     7
370
    18
100
AcDbLine
 10
20.52372268167608
 20
43.91318248636435
 30
0.0
 11
20.47594040699433
 21
43.8654002116826
 31
0.0
  0
LINE
  5
21B
330
1F
100
AcDbEntity
  8
0
  6
Continuous
 62
     7
370
    18
100
AcDbLine
 10
68.34615775282529
 20
23.32356988599288
 30
0.0
 11
20.52372268167608
 21
23.32356988599306
 31
0.0
  0
LINE
  5
21C
330
1F
100
AcDbEntity
  8
0
  6
Continuous
 62
     7
370
    18
100
AcDbLine
 10
68.39394002750704
 20
23.37135216067463
 30
0.0
 11
68.34615775282529
 21
23.32356988599288
 31
0.0
  0
LINE
  5
21D
330
1F
100
AcDbEntity
  8
0
  6
Continuous
 62
     7
370
    18
100
AcDbLine
 10
68.39394002750712
 20
43.97006972253165
 30
0.0
 11
68.39394002750704
 21
23.37135216067463
 31
0.0
  0
SPLINE
  5
21E
330
1F
100
AcDbEntity
  8
0
  6
Continuous
 62
     7
370
    18
100
AcDbSpline
210
0.0
220
0.0
230
1.0
 70
     8
 71
     3
 72
    14
 73
    10
 74
     0
 42
0.0000000001
 43
0.0000000001
 40
0.0
 40
0.0
 40
0.0
 40
0.0
 40
0.25
 40
0.25
 40
0.5
 40
0.5
 40
0.75
 40
0.75
 40
1.0
 40
1.0
 40
1.0
 40
1.0
 10
20.47594021725067
 20
43.86539982194785
 30
0.0
 10
20.47057332760535
 20
43.86377666574349
 30
0.0
 10
20.46520854960195
 20
43.86215350953915
 30
0.0
 10
20.45529183060888
 20
43.85890719713043
 30
0.0
 10
20.45074379142468
 20
43.85728404092609
 30
0.0
 10
20.44315386330063
 20
43.85403772851737
 30
0.0
 10
20.44011496067338
 20
43.85241457231301
 30
0.0
 10
20.43600732117239
 20
43.84916825990432
 30
0.0
 10
20.43494020047939
 20
43.84754510369996
 30
0.0
 10
20.43494020047954
 20
43.8459219474956
 30
0.0
  0
SPLINE
  5
21F
330
1F
100
AcDbEntity
  8
0
  6
Continuous
 62
     7
370
    18
100
AcDbSpline
210
0.0
220
0.0
230
1.0
 70
     8
 71
     3
 72
    14
 73
    10
 74
     0
 42
0.0000000001
 43
0.0000000001
 40
0.0
 40
0.0
 40
0.0
 40
0.0
 40
0.25
 40
0.25
 40
0.5
 40
0.5
 40
0.75
 40
0.75
 40
1.0
 40
1.0
 40
1.0
 40
1.0
 10
20.43494020047961
 20
23.43744407304336
 30
0.0
 10
20.43494020047961
 20
23.435820916839
 30
0.0
 10
20.43600732117271
 20
23.43419776063464
 30
0.0
 10
20.44011496067383
 20
23.43095144822592
 30
0.0
 10
20.4431538633011
 20
23.42932829202157
 30
0.0
 10
20.45074379142512
 20
23.42608197961286
 30
0.0
 10
20.45529183060927
 20
23.4244588234085
 30
0.0
 10
20.46520854960221
 20
23.4212125109998
 30
0.0
 10
20.47057332760552
 20
23.41958935479544
 30
0.0
 10
20.47594021725075
 20
23.41796619859109
 30
0.0
  0
LINE
  5
220
330
1F
100
AcDbEntity
  8
0
  6
Continuous
 62
     7
370
    18
100
AcDbLine
 10
20.43493992063552
 20
23.43744409050823
 30
0.0
 11
20.43493992063545
 21
43.8459219300307
 31
0.0
  0
SPLINE
  5
221
330
1F
100
AcDbEntity
  8
0
  6
Continuous
 62
     7
370
    18
100
AcDbSpline
210
0.0
220
0.0
230
1.0
 70
     8
 71
     3
 72
    14
 73
    10
 74
     0
 42
0.0000000001
 43
0.0000000001
 40
0.0
 40
0.0
 40
0.0
 40
0.0
 40
0.25
 40
0.25
 40
0.5
 40
0.5
 40
0.75
 40
0.75
 40
1.0
 40
1.0
 40
1.0
 40
1.0
 10
68.43494023402183
 20
23.39083042486163
 30
0.0
 10
68.43494023402195
 20
23.38920726865727
 30
0.0
 10
68.433873113329
 20
23.38758411245291
 30
0.0
 10
68.42976547382794
 20
23.3843378000442
 30
0.0
 10
68.42672657120075
 20
23.38271464383987
 30
0.0
 10
68.41913664307668
 20
23.37946833143115
 30
0.0
 10
68.41458860389247
 20
23.37784517522679
 30
0.0
 10
68.4046718848994
 20
23.37459886281808
 30
0.0
 10
68.39930710689599
 20
23.37297570661373
 30
0.0
 10
68.3939402172507
 20
23.37135255040937
 30
0.0
  0
LINE
  5
222
330
1F
100
AcDbEntity
  8
0
  6
Continuous
 62
     7
370
    18
100
AcDbLine
 10
68.43494051386598
 20
43.86656883818266
 30
0.0
 11
68.43494051386592
 21
23.39083044232653
 31
0.0
  0
SPLINE
  5
223
330
1F
100
AcDbEntity
  8
WATER
  6
Continuous
 62
     7
370
    18
100
AcDbSpline
210
0.0
220
0.0
230
1.0
 70
     8
 71
     3
 72
    14
 73
    10
 74
     0
 42
0.0000000001
 43
0.0000000001
 40
0.0
 40
0.0
 40
0.0
 40
0.0
 40
0.25
 40
0.25
 40
0.5
 40
0.5
 40
0.75
 40
0.75
 40
1.0
 40
1.0
 40
1.0
 40
1.0
 10
68.39394021725079
 20
43.81878617376613
 30
0.0
 10
68.39930710689599
 20
43.81716301756178
 30
0.0
 10
68.40467188489931
 20
43.81553986135743
 30
0.0
 10
68.41458860389223
 20
43.81229354894871
 30
0.0
 10
68.41913664307637
 20
43.81067039274436
 30
0.0
 10
68.42672657120042
 20
43.80742408033565
 30
0.0
 10
68.4297654738277
 20
43.8058009241313
 30
0.0
 10
68.4338731133288
 20
43.80255461172259
 30
0.0
 10
68.43494023402191
 20
43.80093145551824
 30
0.0
 10
68.4349402340219
 20
43.79930829931389
 30
0.0
  0
SPLINE
  5
224
330
1F
100
AcDbEntity
  8
WATER
  6
Continuous
 62
     7
370
    18
100
AcDbSpline
210
0.0
220
0.0
230
1.0
 70
     8
 71
     3
 72
    10
 73
     6
 74
     0
 42
0.0000000001
 43
0.0000000001
 40
0.0
 40
0.0
 40
0.0
 40
0.0
 40
0.5
 40
0.5
 40
1.0
 40
1.0
 40
1.0
 40
1.0
 10
68.34615702892914
 20
43.90756936927775
 30
0.0
 10
68.34453387272481
 20
43.90756936927775
 30
0.0
 10
68.34291071652045
 20
43.90650224883401
 30
0.0
 10
68.33966440411171
 20
43.90239461029278
 30
0.0
 10
68.33804124790738
 20
43.89935570837566
 30
0.0
 10
68.33641809170302
 20
43.89556074520049
 30
0.0
  0
LINE
  5
225
330
1F
100
AcDbEntity
  8
0
  6
Continuous
 62
     7
370
    18
100
AcDbLine
 10
68.39394002750712
 20
43.90756932454153
 30
0.0
 11
20.52372268167615
 21
43.90756932454171
 31
0.0
  0
SPLINE
  5
226
330
1F
100
AcDbEntity
  8
0
  6
Continuous
 62
     7
370
    18
100
AcDbSpline
210
0.0
220
0.0
230
1.0
 70
     8
 71
     3
 72
    10
 73
     6
 74
     0
 42
0.0000000001
 43
0.0000000001
 40
0.0
 40
0.0
 40
0.0
 40
0.0
 40
0.5
 40
0.5
 40
1.0
 40
1.0
 40
1.0
 40
1.0
 10
20.5334623427985
 20
23.34119162715675
 30
0.0
 10
20.53183918659414
 20
23.33739666398157
 30
0.0
 10
20.53021603038979
 20
23.33435776206445
 30
0.0
 10
20.52696971798107
 20
23.33025012352322
 30
0.0
 10
20.52534656177671
 20
23.32918300307949
 30
0.0
 10
20.52372340557237
 20
23.32918300307949
 30
0.0
  0
SPLINE
  5
227
330
1F
100
AcDbEntity
  8
0
  6
Continuous
 62
     7
370
    18
100
AcDbSpline
210
0.0
220
0.0
230
1.0
 70
     8
 71
     3
 72
    10
 73
     6
 74
     0
 42
0.0000000001
 43
0.0000000001
 40
0.0
 40
0.0
 40
0.0
 40
0.0
 40
0.5
 40
0.5
 40
1.0
 40
1.0
 40
1.0
 40
1.0
 10
20.52372340557237
 20
23.37018301026947
 30
0.0
 10
20.52534656177672
 20
23.36481612187843
 30
0.0
 10
20.52696971798107
 20
23.35945134512879
 30
0.0
 10
20.53021603038978
 20
23.34953462845326
 30
0.0
 10
20.53183918659413
 20
23.34498659033192
 30
0.0
 10
20.5334623427985
 20
23.34119162715675
 30
0.0
  0
SPLINE
  5
228
330
1F
100
AcDbEntity
  8
WATER
  6
Continuous
 62
     7
370
    18
100
AcDbSpline
210
0.0
220
0.0
230
1.0
 70
     8
 71
     3
 72
    10
 73
     6
 74
     0
 42
0.0000000001
 43
0.0000000001
 40
0.0
 40
0.0
 40
0.0
 40
0.0
 40
0.5
 40
0.5
 40
1.0
 40
1.0
 40
1.0
 40
1.0
 10
68.33641809170302
 20
43.89556074520049
 30
0.0
 10
68.33804124790737
 20
43.89176578202529
 30
0.0
 10
68.33966440411173
 20
43.88721774390397
 30
0.0
 10
68.34291071652045
 20
43.87730102722844
 30
0.0
 10
68.34453387272479
 20
43.8719362504788
 30
0.0
 10
68.34615702892914
 20
43.86656936208775
 30
0.0
  0
LINE
  5
229
330
1F
100
AcDbEntity
  8
0
  6
Continuous
 62
     7
370
    18
100
AcDbLine
 10
68.34615775282529
 20
23.282569399634
 30
0.0
 11
20.52372268167608
 21
23.28256939963418
 31
0.0
  0
SPLINE
  5
22A
330
1F
100
AcDbEntity
  8
0
  6
Continuous
 62
     7
370
    18
100
AcDbSpline
210
0.0
220
0.0
230
1.0
 70
     8
 71
     3
 72
    10
 73
     6
 74
     0
 42
0.0000000001
 43
0.0000000001
 40
0.0
 40
0.0
 40
0.0
 40
0.0
 40
0.5
 40
0.5
 40
1.0
 40
1.0
 40
1.0
 40
1.0
 10
68.33641809170297
 20
23.29457797897504
 30
0.0
 10
68.33804124790728
 20
23.29078301579984
 30
0.0
 10
68.33966440411167
 20
23.28774411388275
 30
0.0
 10
68.34291071652035
 20
23.28363647534152
 30
0.0
 10
68.34453387272471
 20
23.28256935489779
 30
0.0
 10
68.34615702892908
 20
23.2825693548978
 30
0.0
  0
SPLINE
  5
22B
330
1F
100
AcDbEntity
  8
0
  6
Continuous
 62
     7
370
    18
100
AcDbSpline
210
0.0
220
0.0
230
1.0
 70
     8
 71
     3
 72
    10
 73
     6
 74
     0
 42
0.0000000001
 43
0.0000000001
 40
0.0
 40
0.0
 40
0.0
 40
0.0
 40
0.5
 40
0.5
 40
1.0
 40
1.0
 40
1.0
 40
1.0
 10
68.34615702892908
 20
23.32356936208776
 30
0.0
 10
68.34453387272471
 20
23.31820247369673
 30
0.0
 10
68.34291071652036
 20
23.31283769694707
 30
0.0
 10
68.33966440411167
 20
23.30292098027155
 30
0.0
 10
68.3380412479073
 20
23.29837294215022
 30
0.0
 10
68.33641809170297
 20
23.29457797897504
 30
0.0
  0
SPLINE
  5
22C
330
1F
100
AcDbEntity
  8
0
  6
Continuous
 62
     7
370
    18
100
AcDbSpline
210
0.0
220
0.0
230
1.0
 70
     8
 71
     3
 72
    10
 73
     6
 74
     0
 42
0.0000000001
 43
0.0000000001
 40
0.0
 40
0.0
 40
0.0
 40
0.0
 40
0.5
 40
0.5
 40
1.0
 40
1.0
 40
1.0
 40
1.0
 10
20.5237234055723
 20
43.95418301745945
 30
0.0
 10
20.52534656177664
 20
43.95418301745944
 30
0.0
 10
20.52696971798098
 20
43.95311589701572
 30
0.0
 10
20.5302160303897
 20
43.94900825847449
 30
0.0
 10
20.53183918659406
 20
43.9459693565574
 30
0.0
 10
20.53346234279842
 20
43.9421743933822
 30
0.0
  0
SPLINE
  5
22D
330
1F
100
AcDbEntity
  8
0
  6
Continuous
 62
     7
370
    18
100
AcDbSpline
210
0.0
220
0.0
230
1.0
 70
     8
 71
     3
 72
    10
 73
     6
 74
     0
 42
0.0000000001
 43
0.0000000001
 40
0.0
 40
0.0
 40
0.0
 40
0.0
 40
0.5
 40
0.5
 40
1.0
 40
1.0
 40
1.0
 40
1.0
 10
20.53346234279842
 20
43.9421743933822
 30
0.0
 10
20.53183918659406
 20
43.93837943020701
 30
0.0
 10
20.5302160303897
 20
43.93383139208569
 30
0.0
 10
20.52696971798098
 20
43.92391467541016
 30
0.0
 10
20.52534656177665
 20
43.91854989866052
 30
0.0
 10
20.5237234055723
 20
43.91318301026948
 30
0.0
  0
SPLINE
  5
22E
330
1F
100
AcDbEntity
  8
0
  6
Continuous
 62
     7
370
    18
100
AcDbSpline
210
0.0
220
0.0
230
1.0
 70
    24
 71
     3
 72
     8
 73
     4
 74
     0
 42
0.0000000001
 43
0.0000000001
 40
0.0
 40
0.0
 40
0.0
 40
0.0
 40
1.0
 40
1.0
 40
1.0
 40
1.0
 10
20.52372340557237
 20
23.32918301026948
 30
0.0
 10
20.52372340557237
 20
23.34251634360281
 30
0.0
 10
20.52372340557238
 20
23.35584967693614
 30
0.0
 10
20.52372340557237
 20
23.36918301026947
 30
0.0
  0
SPLINE
  5
22F
330
1F
100
AcDbEntity
  8
0
  6
Continuous
 62
     7
370
    18
100
AcDbSpline
210
0.0
220
0.0
230
1.0
 70
    24
 71
     3
 72
     8
 73
     4
 74
     0
 42
0.0000000001
 43
0.0000000001
 40
0.0
 40
0.0
 40
0.0
 40
0.0
 40
1.0
 40
1.0
 40
1.0
 40
1.0
 10
20.5237234055723
 20
43.95418301745945
 30
0.0
 10
20.52372340557229
 20
43.94084968412612
 30
0.0
 10
20.5237234055723
 20
43.92751635079278
 30
0.0
 10
20.5237234055723
 20
43.91418301745945
 30
0.0
  0
SPLINE
  5
230
330
1F
100
AcDbEntity
  8
WATER
  6
Continuous
 62
     7
370
    18
100
AcDbSpline
210
0.0
220
0.0
230
1.0
 70
    24
 71
     3
 72
     8
 73
     4
 74
     0
 42
0.0000000001
 43
0.0000000001
 40
0.0
 40
0.0
 40
0.0
 40
0.0
 40
1.0
 40
1.0
 40
1.0
 40
1.0
 10
68.34615702892915
 20
43.86756936208776
 30
0.0
 10
68.34615702892914
 20
43.88090269781776
 30
0.0
 10
68.34615702892915
 20
43.89423603354773
 30
0.0
 10
68.34615702892914
 20
43.90756936927775
 30
0.0
  0
SPLINE
  5
231
330
1F
100
AcDbEntity
  8
0
  6
Continuous
 62
     7
370
    18
100
AcDbSpline
210
0.0
220
0.0
230
1.0
 70
    24
 71
     3
 72
     8
 73
     4
 74
     0
 42
0.0000000001
 43
0.0000000001
 40
0.0
 40
0.0
 40
0.0
 40
0.0
 40
1.0
 40
1.0
 40
1.0
 40
1.0
 10
68.3461570289291
 20
23.32256935489778
 30
0.0
 10
68.3461570289291
 20
23.30923602156445
 30
0.0
 10
68.34615702892908
 20
23.2959026882311
 30
0.0
 10
68.34615702892908
 20
23.2825693548978
 30
0.0
  0
SPLINE
  5
232
330
1F
100
AcDbEntity
  8
0
  6
Continuous
 62
     7
370
    18
100
AcDbSpline
210
0.0
220
0.0
230
1.0
 70
    24
 71
     3
 72
     8
 73
     4
 74
     0
 42
0.0000000001
 43
0.0000000001
 40
0.0
 40
0.0
 40
0.0
 40
0.0
 40
1.0
 40
1.0
 40
1.0
 40
1.0
 10
20.47594021725075
 20
23.32918299349834
 30
0.0
 10
20.47594021725074
 20
23.34251632683168
 30
0.0
 10
20.47594021725075
 20
23.355849660165
 30
0.0
 10
20.47594021725075
 20
23.36918299349834
 30
0.0
  0
LINE
  5
233
330
1F
100
AcDbEntity
  8
0
  6
Continuous
 62
     7
370
    18
100
AcDbLine
 10
20.52372268167615
 20
23.36918269240305
 30
0.0
 11
20.4759404069944
 21
23.36918269240305
 31
0.0
  0
LINE
  5
234
330
1F
100
AcDbEntity
  8
0
  6
Continuous
 62
     7
370
    18
100
AcDbLine
 10
20.52372268167615
 20
23.3291830478157
 30
0.0
 11
20.4759404069944
 21
23.3291830478157
 31
0.0
  0
LINE
  5
235
330
1F
100
AcDbEntity
  8
0
  6
Continuous
 62
     7
370
    18
100
AcDbLine
 10
20.47594040699433
 20
43.91418332813588
 30
0.0
 11
20.52372268167608
 21
43.91418332813588
 31
0.0
  0
SPLINE
  5
236
330
1F
100
AcDbEntity
  8
0
  6
Continuous
 62
     7
370
    18
100
AcDbSpline
210
0.0
220
0.0
230
1.0
 70
    24
 71
     3
 72
     8
 73
     4
 74
     0
 42
0.0000000001
 43
0.0000000001
 40
0.0
 40
0.0
 40
0.0
 40
0.0
 40
1.0
 40
1.0
 40
1.0
 40
1.0
 10
20.47594021725067
 20
43.95418301026947
 30
0.0
 10
20.47594021725067
 20
43.94084967693614
 30
0.0
 10
20.47594021725067
 20
43.92751634360282
 30
0.0
 10
20.47594021725067
 20
43.91418301026948
 30
0.0
  0
LINE
  5
237
330
1F
100
AcDbEntity
  8
0
  6
Continuous
 62
     7
370
    18
100
AcDbLine
 10
20.47594040699433
 20
43.95418297272323
 30
0.0
 11
20.52372268167608
 21
43.95418297272323
 31
0.0
  0
SPLINE
  5
238
330
1F
100
AcDbEntity
  8
0
  6
Continuous
 62
     7
370
    18
100
AcDbSpline
210
0.0
220
0.0
230
1.0
 70
    24
 71
     3
 72
     8
 73
     4
 74
     0
 42
0.0000000001
 43
0.0000000001
 40
0.0
 40
0.0
 40
0.0
 40
0.0
 40
1.0
 40
1.0
 40
1.0
 40
1.0
 10
68.39394021725069
 20
23.28256934531663
 30
0.0
 10
68.3939402172507
 20
23.29590267864996
 30
0.0
 10
68.3939402172507
 20
23.3092360119833
 30
0.0
 10
68.39394021725071
 20
23.32256934531663
 30
0.0
  0
LINE
  5
239
330
1F
100
AcDbEntity
  8
0
  6
Continuous
 62
     7
370
    18
100
AcDbLine
 10
68.34615775282529
 20
23.32256904422136
 30
0.0
 11
68.39394002750704
 21
23.32256904422136
 31
0.0
  0
LINE
  5
23A
330
1F
100
AcDbEntity
  8
0
  6
Continuous
 62
     7
370
    18
100
AcDbLine
 10
68.34615775282529
 20
23.282569399634
 30
0.0
 11
68.39394002750704
 21
23.282569399634
 31
0.0
  0
SPLINE
  5
23B
330
1F
100
AcDbEntity
  8
WATER
  6
Continuous
 62
     7
370
    18
100
AcDbSpline
210
0.0
220
0.0
230
1.0
 70
    24
 71
     3
 72
     8
 73
     4
 74
     0
 42
0.0000000001
 43
0.0000000001
 40
0.0
 40
0.0
 40
0.0
 40
0.0
 40
1.0
 40
1.0
 40
1.0
 40
1.0
 10
68.39394021725079
 20
43.90756936208776
 30
0.0
 10
68.39394021725077
 20
43.89423602875442
 30
0.0
 10
68.39394021725077
 20
43.8809026954211
 30
0.0
 10
68.39394021725076
 20
43.86756936208776
 30
0.0
  0
LINE
  5
23C
330
1F
100
AcDbEntity
  8
WATER
  6
Continuous
 62
     7
370
    18
100
AcDbLine
 10
68.39394002750712
 20
43.86756967995418
 30
0.0
 11
68.34615775282536
 21
43.86756967995418
 31
0.0
  0
LINE
  5
23D
330
1F
100
AcDbEntity
  8
WATER
  6
Continuous
 62
     7
370
    18
100
AcDbLine
 10
68.39394002750712
 20
43.90756932454154
 30
0.0
 11
68.34615775282536
 21
43.90756932454154
 31
0.0
  0
SPLINE
  5
23E
330
1F
100
AcDbEntity
  8
0
  6
Continuous
 62
     7
370
    18
100
AcDbSpline
210
0.0
220
0.0
230
1.0
 70
     8
 71
     3
 72
    14
 73
    10
 74
     0
 42
0.0000000001
 43
0.0000000001
 40
0.0
 40
0.0
 40
0.0
 40
0.0
 40
0.25
 40
0.25
 40
0.5
 40
0.5
 40
0.75
 40
0.75
 40
1.0
 40
1.0
 40
1.0
 40
1.0
 10
20.47594021725075
 20
23.32918299349834
 30
0.0
 10
20.47057332760559
 20
23.32918299349833
 30
0.0
 10
20.46520854960232
 20
23.33025011419142
 30
0.0
 10
20.4552918306095
 20
23.33435775369245
 30
0.0
 10
20.45074379142538
 20
23.33739665631964
 30
0.0
 10
20.44315386330137
 20
23.34498658444351
 30
0.0
 10
20.44011496067409
 20
23.34953462362758
 30
0.0
 10
20.43600732117288
 20
23.35945134262034
 30
0.0
 10
20.4349402004797
 20
23.36481612062358
 30
0.0
 10
20.43494020047961
 20
23.37018301026874
 30
0.0
  0
SPLINE
  5
23F
330
1F
100
AcDbEntity
  8
0
  6
Continuous
 62
     7
370
    18
100
AcDbSpline
210
0.0
220
0.0
230
1.0
 70
    24
 71
     3
 72
     8
 73
     4
 74
     0
 42
0.0000000001
 43
0.0000000001
 40
0.0
 40
0.0
 40
0.0
 40
0.0
 40
1.0
 40
1.0
 40
1.0
 40
1.0
 10
20.43494021725073
 20
23.37018301026947
 30
0.0
 10
20.44827355058407
 20
23.37018301026947
 30
0.0
 10
20.46160688391741
 20
23.37018301026947
 30
0.0
 10
20.47494021725074
 20
23.37018301026948
 30
0.0
  0
SPLINE
  5
240
330
1F
100
AcDbEntity
  8
0
  6
Continuous
 62
     7
370
    18
100
AcDbSpline
210
0.0
220
0.0
230
1.0
 70
     8
 71
     3
 72
    14
 73
    10
 74
     0
 42
0.0000000001
 43
0.0000000001
 40
0.0
 40
0.0
 40
0.0
 40
0.0
 40
0.25
 40
0.25
 40
0.5
 40
0.5
 40
0.75
 40
0.75
 40
1.0
 40
1.0
 40
1.0
 40
1.0
 10
20.47594021725075
 20
23.36918299349834
 30
0.0
 10
20.475809315209
 20
23.36918299349834
 30
0.0
 10
20.47567846497658
 20
23.36920902125818
 30
0.0
 10
20.47543658982412
 20
23.36930920922674
 30
0.0
 10
20.47532566022413
 20
23.36938333001575
 30
0.0
 10
20.47514053699703
 20
23.36956845324285
 30
0.0
 10
20.47506641620801
 20
23.36967938284283
 30
0.0
 10
20.47496622823946
 20
23.3699212579953
 30
0.0
 10
20.47494020047961
 20
23.37005210822771
 30
0.0
 10
20.47494020047961
 20
23.37018301026946
 30
0.0
  0
SPLINE
  5
241
330
1F
100
AcDbEntity
  8
0
  6
Continuous
 62
     7
370
    18
100
AcDbSpline
210
0.0
220
0.0
230
1.0
 70
    24
 71
     3
 72
     8
 73
     4
 74
     0
 42
0.0000000001
 43
0.0000000001
 40
0.0
 40
0.0
 40
0.0
 40
0.0
 40
1.0
 40
1.0
 40
1.0
 40
1.0
 10
20.4749402172503
 20
43.91318301026948
 30
0.0
 10
20.46160687832671
 20
43.91318301026948
 30
0.0
 10
20.44827353940312
 20
43.91318301026948
 30
0.0
 10
20.43494020047953
 20
43.91318301026948
 30
0.0
  0
SPLINE
  5
242
330
1F
100
AcDbEntity
  8
0
  6
Continuous
 62
     7
370
    18
100
AcDbSpline
210
0.0
220
0.0
230
1.0
 70
     8
 71
     3
 72
    14
 73
    10
 74
     0
 42
0.0000000001
 43
0.0000000001
 40
0.0
 40
0.0
 40
0.0
 40
0.0
 40
0.25
 40
0.25
 40
0.5
 40
0.5
 40
0.75
 40
0.75
 40
1.0
 40
1.0
 40
1.0
 40
1.0
 10
20.43494020047953
 20
43.91318301026948
 30
0.0
 10
20.43494020047953
 20
43.91854989991468
 30
0.0
 10
20.43600732117264
 20
43.923914677918
 30
0.0
 10
20.44011496067375
 20
43.93383139691093
 30
0.0
 10
20.44315386330102
 20
43.93837943609509
 30
0.0
 10
20.45074379142505
 20
43.94596936421912
 30
0.0
 10
20.4552918306092
 20
43.94900826684639
 30
0.0
 10
20.46520854960213
 20
43.9531159063475
 30
0.0
 10
20.47057332760544
 20
43.95418302704061
 30
0.0
 10
20.47594021725067
 20
43.95418302704061
 30
0.0
  0
SPLINE
  5
243
330
1F
100
AcDbEntity
  8
0
  6
Continuous
 62
     7
370
    18
100
AcDbSpline
210
0.0
220
0.0
230
1.0
 70
     8
 71
     3
 72
    14
 73
    10
 74
     0
 42
0.0000000001
 43
0.0000000001
 40
0.0
 40
0.0
 40
0.0
 40
0.0
 40
0.25
 40
0.25
 40
0.5
 40
0.5
 40
0.75
 40
0.75
 40
1.0
 40
1.0
 40
1.0
 40
1.0
 10
20.47494020047954
 20
43.91318301026948
 30
0.0
 10
20.47494020047954
 20
43.91331391231122
 30
0.0
 10
20.47496622823938
 20
43.91344476254364
 30
0.0
 10
20.47506641620793
 20
43.91368663769611
 30
0.0
 10
20.47514053699695
 20
43.9137975672961
 30
0.0
 10
20.47532566022405
 20
43.91398269052319
 30
0.0
 10
20.47543658982404
 20
43.91405681131222
 30
0.0
 10
20.4756784649765
 20
43.91415699928077
 30
0.0
 10
20.47580931520893
 20
43.91418302704059
 30
0.0
 10
20.47594021725067
 20
43.91418302704059
 30
0.0
  0
SPLINE
  5
244
330
1F
100
AcDbEntity
  8
WATER
  6
Continuous
 62
     7
370
    18
100
AcDbSpline
210
0.0
220
0.0
230
1.0
 70
    24
 71
     3
 72
     8
 73
     4
 74
     0
 42
0.0000000001
 43
0.0000000001
 40
0.0
 40
0.0
 40
0.0
 40
0.0
 40
1.0
 40
1.0
 40
1.0
 40
1.0
 10
68.39494021725077
 20
43.86656936208775
 30
0.0
 10
68.40827355617448
 20
43.86656936208776
 30
0.0
 10
68.42160689509819
 20
43.86656936208776
 30
0.0
 10
68.43494023402191
 20
43.86656936208775
 30
0.0
  0
SPLINE
  5
245
330
1F
100
AcDbEntity
  8
WATER
  6
Continuous
 62
     7
370
    18
100
AcDbSpline
210
0.0
220
0.0
230
1.0
 70
     8
 71
     3
 72
    14
 73
    10
 74
     0
 42
0.0000000001
 43
0.0000000001
 40
0.0
 40
0.0
 40
0.0
 40
0.0
 40
0.25
 40
0.25
 40
0.5
 40
0.5
 40
0.75
 40
0.75
 40
1.0
 40
1.0
 40
1.0
 40
1.0
 10
68.3949402340219
 20
43.86656936208775
 30
0.0
 10
68.39494023402193
 20
43.86670026412949
 30
0.0
 10
68.39491420626207
 20
43.86683111436192
 30
0.0
 10
68.39481401829353
 20
43.86707298951439
 30
0.0
 10
68.39473989750448
 20
43.86718391911437
 30
0.0
 10
68.39455477427738
 20
43.86736904234147
 30
0.0
 10
68.39444384467741
 20
43.8674431631305
 30
0.0
 10
68.39420196952494
 20
43.86754335109905
 30
0.0
 10
68.39407111929251
 20
43.86756937885889
 30
0.0
 10
68.39394021725079
 20
43.8675693788589
 30
0.0
  0
SPLINE
  5
246
330
1F
100
AcDbEntity
  8
WATER
  6
Continuous
 62
     7
370
    18
100
AcDbSpline
210
0.0
220
0.0
230
1.0
 70
     8
 71
     3
 72
    14
 73
    10
 74
     0
 42
0.0000000001
 43
0.0000000001
 40
0.0
 40
0.0
 40
0.0
 40
0.0
 40
0.25
 40
0.25
 40
0.5
 40
0.5
 40
0.75
 40
0.75
 40
1.0
 40
1.0
 40
1.0
 40
1.0
 10
68.43494023402191
 20
43.86656936208775
 30
0.0
 10
68.43494023402191
 20
43.87193625173297
 30
0.0
 10
68.43387311332882
 20
43.87730102973629
 30
0.0
 10
68.42976547382768
 20
43.88721774872922
 30
0.0
 10
68.42672657120042
 20
43.89176578791338
 30
0.0
 10
68.41913664307637
 20
43.89935571603741
 30
0.0
 10
68.41458860389224
 20
43.90239461866467
 30
0.0
 10
68.4046718848993
 20
43.9065022581658
 30
0.0
 10
68.39930710689599
 20
43.9075693788589
 30
0.0
 10
68.39394021725076
 20
43.90756937885889
 30
0.0
  0
SPLINE
  5
247
330
1F
100
AcDbEntity
  8
0
  6
Continuous
 62
     7
370
    18
100
AcDbSpline
210
0.0
220
0.0
230
1.0
 70
    24
 71
     3
 72
     8
 73
     4
 74
     0
 42
0.0000000001
 43
0.0000000001
 40
0.0
 40
0.0
 40
0.0
 40
0.0
 40
1.0
 40
1.0
 40
1.0
 40
1.0
 10
68.43494021725071
 20
23.32356936208776
 30
0.0
 10
68.42160688391736
 20
23.32356936208776
 30
0.0
 10
68.40827355058403
 20
23.32356936208776
 30
0.0
 10
68.3949402172507
 20
23.32356936208776
 30
0.0
  0
SPLINE
  5
248
330
1F
100
AcDbEntity
  8
0
  6
Continuous
 62
     7
370
    18
100
AcDbSpline
210
0.0
220
0.0
230
1.0
 70
     8
 71
     3
 72
    14
 73
    10
 74
     0
 42
0.0000000001
 43
0.0000000001
 40
0.0
 40
0.0
 40
0.0
 40
0.0
 40
0.25
 40
0.25
 40
0.5
 40
0.5
 40
0.75
 40
0.75
 40
1.0
 40
1.0
 40
1.0
 40
1.0
 10
68.39394021725069
 20
23.28256934531663
 30
0.0
 10
68.39930710689592
 20
23.28256934531663
 30
0.0
 10
68.40467188489923
 20
23.28363646600972
 30
0.0
 10
68.41458860389217
 20
23.28774410551085
 30
0.0
 10
68.41913664307632
 20
23.29078300813812
 30
0.0
 10
68.42672657120035
 20
23.29837293626213
 30
0.0
 10
68.4297654738276
 20
23.3029209754463
 30
0.0
 10
68.43387311332873
 20
23.31283769443923
 30
0.0
 10
68.43494023402183
 20
23.31820247244255
 30
0.0
 10
68.43494023402185
 20
23.32356936208776
 30
0.0
  0
SPLINE
  5
249
330
1F
100
AcDbEntity
  8
0
  6
Continuous
 62
     7
370
    18
100
AcDbSpline
210
0.0
220
0.0
230
1.0
 70
     8
 71
     3
 72
    14
 73
    10
 74
     0
 42
0.0000000001
 43
0.0000000001
 40
0.0
 40
0.0
 40
0.0
 40
0.0
 40
0.25
 40
0.25
 40
0.5
 40
0.5
 40
0.75
 40
0.75
 40
1.0
 40
1.0
 40
1.0
 40
1.0
 10
68.39394021725071
 20
23.32256934531663
 30
0.0
 10
68.39407111929244
 20
23.32256934531662
 30
0.0
 10
68.39420196952485
 20
23.32259537307646
 30
0.0
 10
68.39444384467732
 20
23.32269556104502
 30
0.0
 10
68.39455477427731
 20
23.32276968183404
 30
0.0
 10
68.39473989750442
 20
23.32295480506114
 30
0.0
 10
68.39481401829345
 20
23.32306573466113
 30
0.0
 10
68.39491420626199
 20
23.32330760981359
 30
0.0
 10
68.39494023402181
 20
23.32343846004602
 30
0.0
 10
68.39494023402185
 20
23.32356936208776
 30
0.0
  0
LINE
  5
24A
330
1F
100
AcDbEntity
  8
0
  6
Continuous
 62
     7
370
    18
100
AcDbLine
 10
20.47494073854266
 20
23.37018353417458
 30
0.0
 11
20.47494073854266
 21
23.41827673859778
 31
0.0
  0
LINE
  5
24B
330
1F
100
AcDbEntity
  8
0
  6
Continuous
 62
     7
370
    18
100
AcDbLine
 10
20.43493992063552
 20
23.37018353417458
 30
0.0
 11
20.43493992063552
 21
23.43744409050823
 31
0.0
  0
LINE
  5
24C
330
1F
100
AcDbEntity
  8
0
  6
Continuous
 62
     7
370
    18
100
AcDbLine
 10
20.43493992063545
 20
43.8459219300307
 30
0.0
 11
20.43493992063545
 21
43.91318248636435
 31
0.0
  0
LINE
  5
24D
330
1F
100
AcDbEntity
  8
0
  6
Continuous
 62
     7
370
    18
100
AcDbLine
 10
20.47494073854259
 20
43.86508928194115
 30
0.0
 11
20.47494073854259
 21
43.91318248636435
 31
0.0
  0
LINE
  5
24E
330
1F
100
AcDbEntity
  8
WATER
  6
Continuous
 62
     7
370
    18
100
AcDbLine
 10
68.43494051386599
 20
43.799308281849
 30
0.0
 11
68.43494051386599
 21
43.86656883818266
 31
0.0
  0
LINE
  5
24F
330
1F
100
AcDbEntity
  8
WATER
  6
Continuous
 62
     7
370
    18
100
AcDbLine
 10
68.39493969595885
 20
43.81847563375946
 30
0.0
 11
68.39493969595885
 21
43.86656883818266
 31
0.0
  0
LINE
  5
250
330
1F
100
AcDbEntity
  8
0
  6
Continuous
 62
     7
370
    18
100
AcDbLine
 10
68.39493969595878
 20
23.32356988599288
 30
0.0
 11
68.39493969595878
 21
23.37166309041608
 31
0.0
  0
LINE
  5
251
330
1F
100
AcDbEntity
  8
0
  6
Continuous
 62
     7
370
    18
100
AcDbLine
 10
68.43494051386592
 20
23.32356988599288
 30
0.0
 11
68.43494051386592
 21
23.39083044232653
 31
0.0
  0
LINE
  5
257
330
1F
100
AcDbEntity
  8
HEAT
  6
Continuous
 62
     7
370
    18
100
AcDbLine
 10
89.25349830944306
 20
31.02535238101104
 30
0.0
 11
89.24583887792547
 21
31.02535238101104
 31
0.0
  0
LINE
  5
258
330
1F
100
AcDbEntity
  8
0
  6
Continuous
 62
     7
370
    18
100
AcDbLine
 10
39.63701769659444
 20
51.89776907440567
 30
0.0
 11
39.61927856818503
 21
51.89776907440567
 31
0.0
  0
LINE
  5
259
330
1F
100
AcDbEntity
  8
0
  6
Continuous
 62
     7
370
    18
100
AcDbLine
 10
23.6182503467618
 20
51.89776907440573
 30
0.0
 11
23.60358384952376
 21
51.89776907440573
 31
0.0
  0
LINE
  5
25A
330
1F
100
AcDbEntity
  8
0
  6
Continuous
 62
     7
370
    18
100
AcDbLine
 10
41.36189603731926
 20
43.92906923617288
 30
0.0
 11
39.61309341296974
 21
43.92906923617288
 31
0.0
  0
LINE
  5
25B
330
1F
100
AcDbEntity
  8
0
  6
Continuous
 62
     7
370
    18
100
AcDbLine
 10
23.62340826051041
 20
43.92906923617293
 30
0.0
 11
20.40198371468166
 21
43.92906923617295
 31
0.0
  0
LINE
  5
25C
330
1F
100
AcDbEntity
  8
Layer2
  6
Continuous
 62
     7
370
    18
100
AcDbLine
 10
20.34694093720719
 20
43.79687716326706
 30
0.0
 11
20.34694093720718
 21
42.84309424743426
 31
0.0
  0
LINE
  5
25D
330
1F
100
AcDbEntity
  8
Layer2
  6
Continuous
 62
     7
370
    18
100
AcDbLine
 10
20.34694093720716
 20
33.7677054550413
 30
0.0
 11
20.34694093720711
 21
23.18392253921118
 31
0.0
  0
LINE
  5
25E
330
1F
100
AcDbEntity
  8
0
  6
Continuous
 62
     7
370
    18
100
AcDbLine
 10
68.52094016039057
 20
23.28859205005987
 30
0.0
 11
68.52094016039057
 21
24.60006964642543
 31
0.0
  0
LINE
  5
260
330
1F
100
AcDbEntity
  8
WATER
  6
Continuous
 62
     7
370
    18
100
AcDbLine
 10
68.52094016039062
 20
37.23006947692297
 30
0.0
 11
68.52094016039065
 21
43.90154667411576
 31
0.0
  0
LINE
  5
2A3
330
1F
100
AcDbEntity
  8
0
370
    18
100
AcDbLine
 10
-0.5293421938208667
 20
35.64125963299398
 30
0.0
 11
-0.5293421938208667
 21
39.98133974556958
 31
0.0
  0
LINE
  5
2A4
330
1F
100
AcDbEntity
  8
0
370
    18
100
AcDbLine
 10
-0.5293421938208667
 20
39.98133974556958
 30
0.0
 11
8.363468665977279
 21
39.98133974556958
 31
0.0
  0
LINE
  5
2A5
330
1F
100
AcDbEntity
  8
0
370
    18
100
AcDbLine
 10
8.363468665977279
 20
39.98133974556958
 30
0.0
 11
8.363468665977279
 21
43.18716772996674
 31
0.0
  0
LINE
  5
2A6
330
1F
100
AcDbEntity
  8
0
370
    18
100
AcDbLine
 10
8.363468665977279
 20
43.18716772996674
 30
0.0
 11
14.59942104594165
 21
37.81129968928178
 31
0.0
  0
LINE
  5
2A7
330
1F
100
AcDbEntity
  8
0
370
    18
100
AcDbLine
 10
8.363468665977279
 20
35.64125963299398
 30
0.0
 11
8.363468665977279
 21
32.43543164859682
 31
0.0
  0
LINE
  5
2A8
330
1F
100
AcDbEntity
  8
0
370
    18
100
AcDbLine
 10
-0.5293421938208667
 20
35.64125963299398
 30
0.0
 11
8.363468665977279
 21
35.64125963299398
 31
0.0
  0
LINE
  5
2AA
330
1F
100
AcDbEntity
  8
0
370
    18
100
AcDbLine
 10
8.363468665977279
 20
32.43543164859682
 30
0.0
 11
14.59942104594165
 21
37.81129968928178
 31
0.0
  0
MTEXT
  5
2AB
330
1F
100
AcDbEntity
  8
0
  6
Continuous
 62
     0
370
    18
100
AcDbMText
 10
40.93660989701675
 20
40.32125065011032
 30
0.0
 40
2.381249999999999
 41
0.0
 71
     1
 72
     1
  1
{\fVerdana|b0|i0|c0|p34;TITUS}
  7
SLDTEXTSTYLE0
 73
     1
 44
1.0
  0
MTEXT
  5
2AC
330
1F
100
AcDbEntity
  8
0
  6
Continuous
 62
     0
370
    18
100
AcDbMText
 10
36.94291064364915
 20
37.08991627315867
 30
0.0
 40
2.381249999999999
 41
0.0
 71
     1
 72
     1
  1
{\fVerdana|b0|i0|c0|p34;LHK W/ELEC HT}
  7
SLDTEXTSTYLE1
 73
     1
 44
1.0
  0
MTEXT
  5
2AD
330
1F
100
AcDbEntity
  8
0
  6
Continuous
 62
     0
370
    18
100
AcDbMText
 10
40.07148860092502
 20
33.86620301421044
 30
0.0
 40
2.381249999999999
 41
0.0
 71
     1
 72
     1
  1
{\fVerdana|b0|i0|c0|p34;SIZE 3-4}
  7
SLDTEXTSTYLE0
 73
     1
 44
1.0
  0
MTEXT
  5
2AE
330
1F
100
AcDbEntity
  8
0
  6
Continuous
 62
     0
370
    18
100
AcDbMText
 10
39.97372071481072
 20
30.54480111612622
 30
0.0
 40
2.381249999999999
 41
0.0
 71
     1
 72
     1
  1
{\fVerdana|b0|i0|c0|p34;9" INLET}
  7
SLDTEXTSTYLE0
 73
     1
 44
1.0
  0
SPLINE
  5
2B5
330
1F
100
AcDbEntity
  8
Layer1
  6
Continuous
 62
     7
370
    18
100
AcDbSpline
210
0.0
220
0.0
230
1.0
 70
    24
 71
     1
 72
     4
 73
     2
 74
     0
 42
0.0000000001
 43
0.0000000001
 40
0.0
 40
0.0
 40
1.0
 40
1.0
 10
20.14719967130202
 20
33.46376418405086
 30
0.0
 10
16.99120178299227
 20
33.46376418405087
 30
0.0
  0
SPLINE
  5
2B6
330
1F
100
AcDbEntity
  8
Layer1
  6
Continuous
 62
     7
370
    18
100
AcDbSpline
210
0.0
220
0.0
230
1.0
 70
    24
 71
     1
 72
     4
 73
     2
 74
     0
 42
0.0000000001
 43
0.0000000001
 40
0.0
 40
0.0
 40
1.0
 40
1.0
 10
20.43493992063543
 20
33.46376418405086
 30
0.0
 10
20.39720126326229
 20
33.46376418405087
 30
0.0
  0
ARC
  5
2B7
330
1F
100
AcDbEntity
  8
Layer1
  6
Continuous
 62
     7
370
    18
100
AcDbCircle
 10
20.27220083437861
 20
33.46376420767083
 30
0.0
 40
0.1249999999999964
100
AcDbArc
 50
180.0
 51
359.9999999999996
  0
SPLINE
  5
2B8
330
1F
100
AcDbEntity
  8
Layer1
  6
Continuous
 62
     7
370
    18
100
AcDbSpline
210
0.0
220
0.0
230
1.0
 70
    24
 71
     1
 72
     4
 73
     2
 74
     0
 42
0.0000000001
 43
0.0000000001
 40
0.0
 40
0.0
 40
1.0
 40
1.0
 10
16.9912017829923
 20
43.34838186589752
 30
0.0
 10
19.242760199464
 20
43.34838186589751
 30
0.0
  0
SPLINE
  5
2B9
330
1F
100
AcDbEntity
  8
Layer1
  6
Continuous
 62
     7
370
    18
100
AcDbSpline
210
0.0
220
0.0
230
1.0
 70
    24
 71
     1
 72
     4
 73
     2
 74
     0
 42
0.0000000001
 43
0.0000000001
 40
0.0
 40
0.0
 40
1.0
 40
1.0
 10
20.39720126326233
 20
43.3483818658975
 30
0.0
 10
20.43493992063547
 20
43.3483818658975
 30
0.0
  0
SPLINE
  5
2BA
330
1F
100
AcDbEntity
  8
Layer1
  6
Continuous
 62
     7
370
    18
100
AcDbSpline
210
0.0
220
0.0
230
1.0
 70
    24
 71
     1
 72
     4
 73
     2
 74
     0
 42
0.0000000001
 43
0.0000000001
 40
0.0
 40
0.0
 40
1.0
 40
1.0
 10
19.98964159809302
 20
43.3483818658975
 30
0.0
 10
20.14719967130205
 20
43.3483818658975
 30
0.0
  0
LINE
  5
2BB
330
1F
100
AcDbEntity
  8
Layer1
  6
Continuous
 62
     7
370
    18
100
AcDbLine
 10
20.00682603957689
 20
43.33887856234714
 30
0.0
 11
19.22557575798014
 21
43.33887856234715
 31
0.0
  0
LINE
  5
2BC
330
1F
100
AcDbEntity
  8
Layer1
  6
Continuous
 62
     7
370
    18
100
AcDbLine
 10
20.00682603957689
 20
43.34687884326055
 30
0.0
 11
19.22557575798014
 21
43.34687884326055
 31
0.0
  0
ARC
  5
2BD
330
1F
100
AcDbEntity
  8
Layer1
  6
Continuous
 62
     7
370
    18
100
AcDbCircle
 10
20.27220083437863
 20
43.34838212218678
 30
0.0
 40
0.125
100
AcDbArc
 50
359.9999999999989
 51
180.0
  0
LINE
  5
2C0
330
1F
100
AcDbEntity
  8
Layer1
370
    18
100
AcDbLine
 10
16.99120178299227
 20
33.46376418405089
 30
0.0
 11
16.9912017829923
 21
43.34838186589752
 31
0.0
  0
LINE
  5
35C
330
1F
100
AcDbEntity
  8
WATER
  6
Continuous
 62
     7
370
    18
100
AcDbLine
 10
47.39091934952741
 20
43.93440080124886
 30
0.0
 11
47.39091934952741
 21
43.93340113279712
 31
0.0
  0
LINE
  5
35D
330
1F
100
AcDbEntity
  8
WATER
  6
Continuous
 62
     7
370
    18
100
AcDbLine
 10
47.39091934952742
 20
43.93440080124885
 30
0.0
 11
47.39091934952742
 21
43.97440044583621
 31
0.0
  0
LINE
  5
35E
330
1F
100
AcDbEntity
  8
WATER
  6
Continuous
 62
     7
370
    18
100
AcDbLine
 10
47.39091934952741
 20
43.93340113279712
 30
0.0
 11
47.39091934952741
 21
43.90640069804177
 31
0.0
  0
LINE
  5
362
330
1F
100
AcDbEntity
  8
WATER
  6
Continuous
 62
     7
370
    18
100
AcDbLine
 10
68.49944259539895
 20
24.3392265797068
 30
0.0
 11
68.49944259539902
 21
42.90164414507509
 31
0.0
  0
LINE
  5
364
330
1F
100
AcDbEntity
  8
0
  6
Continuous
 62
     7
370
    18
100
AcDbLine
 10
68.45944177749188
 20
43.97006972253165
 30
0.0
 11
68.4594417774918
 21
23.38966181582665
 31
0.0
  0
LINE
  5
365
330
1F
100
AcDbEntity
  8
0
  6
Continuous
 62
     7
370
    18
100
AcDbLine
 10
68.41844129113301
 20
43.86656883818266
 30
0.0
 11
68.41844129113292
 21
23.37018353417475
 31
0.0
  0
SPLINE
  5
368
330
1F
100
AcDbEntity
  8
WATER
  6
Continuous
 62
     7
370
    18
100
AcDbSpline
210
0.0
220
0.0
230
1.0
 70
     8
 71
     3
 72
    14
 73
    10
 74
     0
 42
0.0000000001
 43
0.0000000001
 40
0.0
 40
0.0
 40
0.0
 40
0.0
 40
0.25
 40
0.25
 40
0.5
 40
0.5
 40
0.75
 40
0.75
 40
1.0
 40
1.0
 40
1.0
 40
1.0
 10
68.41944149764779
 20
43.86540073558788
 30
0.0
 10
68.41944149764779
 20
43.86553163762963
 30
0.0
 10
68.41941546988794
 20
43.86566248786205
 30
0.0
 10
68.41931528191939
 20
43.86590436301451
 30
0.0
 10
68.41924116113037
 20
43.86601529261451
 30
0.0
 10
68.41905603790327
 20
43.8662004158416
 30
0.0
 10
68.4189451083033
 20
43.86627453663062
 30
0.0
 10
68.41870323315084
 20
43.86637472459918
 30
0.0
 10
68.4185723829184
 20
43.86640075235901
 30
0.0
 10
68.41844148087665
 20
43.86640075235902
 30
0.0
  0
SPLINE
  5
369
330
1F
100
AcDbEntity
  8
WATER
  6
Continuous
 62
     7
370
    18
100
AcDbSpline
210
0.0
220
0.0
230
1.0
 70
    24
 71
     3
 72
     8
 73
     4
 74
     0
 42
0.0000000001
 43
0.0000000001
 40
0.0
 40
0.0
 40
0.0
 40
0.0
 40
1.0
 40
1.0
 40
1.0
 40
1.0
 10
68.41944148087662
 20
43.86540073558788
 30
0.0
 10
68.43277481980035
 20
43.86540073558789
 30
0.0
 10
68.44610815872406
 20
43.86540073558789
 30
0.0
 10
68.45944149764777
 20
43.86540073558788
 30
0.0
  0
SPLINE
  5
36A
330
1F
100
AcDbEntity
  8
WATER
  6
Continuous
 62
     7
370
    18
100
AcDbSpline
210
0.0
220
0.0
230
1.0
 70
    24
 71
     3
 72
     8
 73
     4
 74
     0
 42
0.0000000001
 43
0.0000000001
 40
0.0
 40
0.0
 40
0.0
 40
0.0
 40
1.0
 40
1.0
 40
1.0
 40
1.0
 10
68.41844148087665
 20
43.90640073558788
 30
0.0
 10
68.41844148087663
 20
43.89306740225455
 30
0.0
 10
68.41844148087663
 20
43.87973406892122
 30
0.0
 10
68.41844148087665
 20
43.86640073558789
 30
0.0
  0
SPLINE
  5
36B
330
1F
100
AcDbEntity
  8
WATER
  6
Continuous
 62
     7
370
    18
100
AcDbSpline
210
0.0
220
0.0
230
1.0
 70
     8
 71
     3
 72
    14
 73
    10
 74
     0
 42
0.0000000001
 43
0.0000000001
 40
0.0
 40
0.0
 40
0.0
 40
0.0
 40
0.25
 40
0.25
 40
0.5
 40
0.5
 40
0.75
 40
0.75
 40
1.0
 40
1.0
 40
1.0
 40
1.0
 10
68.41844148087665
 20
43.81761754726626
 30
0.0
 10
68.42380837052188
 20
43.81599439106191
 30
0.0
 10
68.4291731485252
 20
43.81437123485755
 30
0.0
 10
68.43908986751812
 20
43.81112492244883
 30
0.0
 10
68.44363790670226
 20
43.80950176624448
 30
0.0
 10
68.45122783482628
 20
43.80625545383577
 30
0.0
 10
68.45426673745357
 20
43.80463229763142
 30
0.0
 10
68.45837437695466
 20
43.80138598522271
 30
0.0
 10
68.45944149764777
 20
43.79976282901835
 30
0.0
 10
68.45944149764779
 20
43.79813967281402
 30
0.0
  0
SPLINE
  5
36C
330
1F
100
AcDbEntity
  8
WATER
  6
Continuous
 62
     7
370
    18
100
AcDbSpline
210
0.0
220
0.0
230
1.0
 70
     8
 71
     3
 72
    14
 73
    10
 74
     0
 42
0.0000000001
 43
0.0000000001
 40
0.0
 40
0.0
 40
0.0
 40
0.0
 40
0.25
 40
0.25
 40
0.5
 40
0.5
 40
0.75
 40
0.75
 40
1.0
 40
1.0
 40
1.0
 40
1.0
 10
68.45944149764777
 20
43.86540073558788
 30
0.0
 10
68.45944149764777
 20
43.87076762523309
 30
0.0
 10
68.45837437695468
 20
43.87613240323642
 30
0.0
 10
68.45426673745357
 20
43.88604912222935
 30
0.0
 10
68.45122783482628
 20
43.8905971614135
 30
0.0
 10
68.44363790670226
 20
43.89818708953753
 30
0.0
 10
68.4390898675181
 20
43.9012259921648
 30
0.0
 10
68.42917314852517
 20
43.90533363166592
 30
0.0
 10
68.42380837052188
 20
43.90640075235902
 30
0.0
 10
68.41844148087665
 20
43.90640075235903
 30
0.0
  0
SPLINE
  5
36D
330
1F
100
AcDbEntity
  8
WATER
  6
Continuous
 62
     7
370
    18
100
AcDbSpline
210
0.0
220
0.0
230
1.0
 70
    24
 71
     3
 72
     8
 73
     4
 74
     0
 42
0.0000000001
 43
0.0000000001
 40
0.0
 40
0.0
 40
0.0
 40
0.0
 40
1.0
 40
1.0
 40
1.0
 40
1.0
 10
68.37065829255502
 20
43.86640073558789
 30
0.0
 10
68.37065829255504
 20
43.87973407131787
 30
0.0
 10
68.37065829255502
 20
43.89306740704786
 30
0.0
 10
68.37065829255504
 20
43.90640074277786
 30
0.0
  0
SPLINE
  5
36E
330
1F
100
AcDbEntity
  8
WATER
  6
Continuous
 62
     7
370
    18
100
AcDbSpline
210
0.0
220
0.0
230
1.0
 70
     8
 71
     3
 72
    10
 73
     6
 74
     0
 42
0.0000000001
 43
0.0000000001
 40
0.0
 40
0.0
 40
0.0
 40
0.0
 40
0.5
 40
0.5
 40
1.0
 40
1.0
 40
1.0
 40
1.0
 10
68.36091935532891
 20
43.89439211870061
 30
0.0
 10
68.36254251153326
 20
43.89059715552542
 30
0.0
 10
68.36416566773762
 20
43.8860491174041
 30
0.0
 10
68.36741198014632
 20
43.87613240072856
 30
0.0
 10
68.36903513635066
 20
43.87076762397893
 30
0.0
 10
68.37065829255504
 20
43.86540073558788
 30
0.0
  0
SPLINE
  5
36F
330
1F
100
AcDbEntity
  8
WATER
  6
Continuous
 62
     7
370
    18
100
AcDbSpline
210
0.0
220
0.0
230
1.0
 70
     8
 71
     3
 72
    10
 73
     6
 74
     0
 42
0.0000000001
 43
0.0000000001
 40
0.0
 40
0.0
 40
0.0
 40
0.0
 40
0.5
 40
0.5
 40
1.0
 40
1.0
 40
1.0
 40
1.0
 10
68.37065829255504
 20
43.90640074277786
 30
0.0
 10
68.36903513635068
 20
43.90640074277786
 30
0.0
 10
68.36741198014632
 20
43.90533362233413
 30
0.0
 10
68.36416566773761
 20
43.90122598379291
 30
0.0
 10
68.36254251153327
 20
43.89818708187578
 30
0.0
 10
68.36091935532891
 20
43.89439211870061
 30
0.0
  0
LINE
  5
3B1
330
1F
100
AcDbEntity
  8
WATER
  6
Continuous
 62
     7
370
    18
100
AcDbLine
 10
68.49944259539902
 20
42.90164414507509
 30
0.0
 11
68.49944259539902
 21
43.90154667411575
 31
0.0
  0
LINE
  5
3B2
330
1F
100
AcDbEntity
  8
WATER
  6
Continuous
 62
     7
370
    18
100
AcDbLine
 10
68.56194064674951
 20
42.90164414507509
 30
0.0
 11
68.56194064674953
 21
43.90154667411575
 31
0.0
  0
LINE
  5
3B3
330
1F
100
AcDbEntity
  8
WATER
  6
Continuous
 62
     7
370
    18
100
AcDbLine
 10
68.41944095958473
 20
43.81730700725959
 30
0.0
 11
68.41944095958473
 21
43.86540021168278
 31
0.0
  0
LINE
  5
3B4
330
1F
100
AcDbEntity
  8
WATER
  6
Continuous
 62
     7
370
    18
100
AcDbLine
 10
68.45944177749188
 20
43.79813965534913
 30
0.0
 11
68.45944177749188
 21
43.86540021168278
 31
0.0
  0
LINE
  5
3B5
330
1F
100
AcDbEntity
  8
WATER
  6
Continuous
 62
     7
370
    18
100
AcDbLine
 10
68.56194064674953
 20
43.90154667411575
 30
0.0
 11
68.49944259539902
 21
43.90154667411575
 31
0.0
  0
LINE
  5
3B6
330
1F
100
AcDbEntity
  8
WATER
  6
Continuous
 62
     7
370
    18
100
AcDbLine
 10
68.41844129113299
 20
43.90640069804166
 30
0.0
 11
68.37065901645124
 21
43.90640069804166
 31
0.0
  0
LINE
  5
3B7
330
1F
100
AcDbEntity
  8
WATER
  6
Continuous
 62
     7
370
    18
100
AcDbLine
 10
68.41844129113299
 20
43.8664010534543
 30
0.0
 11
68.37065901645124
 21
43.8664010534543
 31
0.0
  0
LINE
  5
3B8
330
1F
100
AcDbEntity
  8
WATER
  6
Continuous
 62
     7
370
    18
100
AcDbLine
 10
68.37065901645124
 20
43.86540021168278
 30
0.0
 11
68.41844129113301
 21
43.81761793700102
 31
0.0
  0
SPLINE
  5
3BB
330
1F
100
AcDbEntity
  8
0
  6
Continuous
 62
     7
370
    18
100
AcDbSpline
210
0.0
220
0.0
230
1.0
 70
    24
 71
     3
 72
     8
 73
     4
 74
     0
 42
0.0000000001
 43
0.0000000001
 40
0.0
 40
0.0
 40
0.0
 40
0.0
 40
1.0
 40
1.0
 40
1.0
 40
1.0
 10
68.45944148087657
 20
23.32240073558787
 30
0.0
 10
68.44610814754322
 20
23.32240073558787
 30
0.0
 10
68.43277481420989
 20
23.32240073558789
 30
0.0
 10
68.41944148087657
 20
23.32240073558787
 30
0.0
  0
SPLINE
  5
3BC
330
1F
100
AcDbEntity
  8
0
  6
Continuous
 62
     7
370
    18
100
AcDbSpline
210
0.0
220
0.0
230
1.0
 70
     8
 71
     3
 72
    14
 73
    10
 74
     0
 42
0.0000000001
 43
0.0000000001
 40
0.0
 40
0.0
 40
0.0
 40
0.0
 40
0.25
 40
0.25
 40
0.5
 40
0.5
 40
0.75
 40
0.75
 40
1.0
 40
1.0
 40
1.0
 40
1.0
 10
68.4594414976477
 20
23.38966179836175
 30
0.0
 10
68.45944149764782
 20
23.38803864215739
 30
0.0
 10
68.45837437695486
 20
23.38641548595303
 30
0.0
 10
68.45426673745385
 20
23.38316917354433
 30
0.0
 10
68.45122783482664
 20
23.38154601733997
 30
0.0
 10
68.44363790670256
 20
23.37829970493126
 30
0.0
 10
68.43908986751836
 20
23.37667654872691
 30
0.0
 10
68.42917314852529
 20
23.3734302363182
 30
0.0
 10
68.42380837052188
 20
23.37180708011384
 30
0.0
 10
68.41844148087658
 20
23.37018392390949
 30
0.0
  0
SPLINE
  5
3BD
330
1F
100
AcDbEntity
  8
0
  6
Continuous
 62
     7
370
    18
100
AcDbSpline
210
0.0
220
0.0
230
1.0
 70
     8
 71
     3
 72
    14
 73
    10
 74
     0
 42
0.0000000001
 43
0.0000000001
 40
0.0
 40
0.0
 40
0.0
 40
0.0
 40
0.25
 40
0.25
 40
0.5
 40
0.5
 40
0.75
 40
0.75
 40
1.0
 40
1.0
 40
1.0
 40
1.0
 10
68.41844148087658
 20
23.32140071881675
 30
0.0
 10
68.41857238291833
 20
23.32140071881674
 30
0.0
 10
68.41870323315075
 20
23.32142674657659
 30
0.0
 10
68.41894510830319
 20
23.32152693454514
 30
0.0
 10
68.4190560379032
 20
23.32160105533417
 30
0.0
 10
68.41924116113031
 20
23.32178617856127
 30
0.0
 10
68.41931528191931
 20
23.32189710816125
 30
0.0
 10
68.41941546988785
 20
23.32213898331372
 30
0.0
 10
68.41944149764772
 20
23.32226983354614
 30
0.0
 10
68.41944149764771
 20
23.32240073558789
 30
0.0
  0
SPLINE
  5
3BE
330
1F
100
AcDbEntity
  8
0
  6
Continuous
 62
     7
370
    18
100
AcDbSpline
210
0.0
220
0.0
230
1.0
 70
     8
 71
     3
 72
    14
 73
    10
 74
     0
 42
0.0000000001
 43
0.0000000001
 40
0.0
 40
0.0
 40
0.0
 40
0.0
 40
0.25
 40
0.25
 40
0.5
 40
0.5
 40
0.75
 40
0.75
 40
1.0
 40
1.0
 40
1.0
 40
1.0
 10
68.41844148087658
 20
23.28140071881675
 30
0.0
 10
68.42380837052181
 20
23.28140071881674
 30
0.0
 10
68.42917314852512
 20
23.28246783950985
 30
0.0
 10
68.43908986751806
 20
23.28657547901098
 30
0.0
 10
68.44363790670219
 20
23.28961438163824
 30
0.0
 10
68.45122783482622
 20
23.29720430976226
 30
0.0
 10
68.45426673745347
 20
23.30175234894642
 30
0.0
 10
68.45837437695459
 20
23.31166906793935
 30
0.0
 10
68.4594414976477
 20
23.31703384594267
 30
0.0
 10
68.45944149764772
 20
23.32240073558789
 30
0.0
  0
SPLINE
  5
3BF
330
1F
100
AcDbEntity
  8
0
  6
Continuous
 62
     7
370
    18
100
AcDbSpline
210
0.0
220
0.0
230
1.0
 70
    24
 71
     3
 72
     8
 73
     4
 74
     0
 42
0.0000000001
 43
0.0000000001
 40
0.0
 40
0.0
 40
0.0
 40
0.0
 40
1.0
 40
1.0
 40
1.0
 40
1.0
 10
68.41844148087658
 20
23.28140071881675
 30
0.0
 10
68.41844148087656
 20
23.29473405215009
 30
0.0
 10
68.41844148087656
 20
23.30806738548341
 30
0.0
 10
68.41844148087658
 20
23.32140071881675
 30
0.0
  0
SPLINE
  5
3C2
330
1F
100
AcDbEntity
  8
0
  6
Continuous
 62
     7
370
    18
100
AcDbSpline
210
0.0
220
0.0
230
1.0
 70
     8
 71
     3
 72
    10
 73
     6
 74
     0
 42
0.0000000001
 43
0.0000000001
 40
0.0
 40
0.0
 40
0.0
 40
0.0
 40
0.5
 40
0.5
 40
1.0
 40
1.0
 40
1.0
 40
1.0
 10
68.36091935532883
 20
23.29340935247515
 30
0.0
 10
68.3625425115332
 20
23.28961438929997
 30
0.0
 10
68.36416566773753
 20
23.28657548738285
 30
0.0
 10
68.36741198014625
 20
23.28246784884163
 30
0.0
 10
68.36903513635057
 20
23.2814007283979
 30
0.0
 10
68.37065829255495
 20
23.2814007283979
 30
0.0
  0
SPLINE
  5
3C3
330
1F
100
AcDbEntity
  8
0
  6
Continuous
 62
     7
370
    18
100
AcDbSpline
210
0.0
220
0.0
230
1.0
 70
    24
 71
     3
 72
     8
 73
     4
 74
     0
 42
0.0000000001
 43
0.0000000001
 40
0.0
 40
0.0
 40
0.0
 40
0.0
 40
1.0
 40
1.0
 40
1.0
 40
1.0
 10
68.37065829255497
 20
23.3214007283979
 30
0.0
 10
68.37065829255497
 20
23.30806739506456
 30
0.0
 10
68.37065829255495
 20
23.29473406173123
 30
0.0
 10
68.37065829255495
 20
23.2814007283979
 30
0.0
  0
SPLINE
  5
3C4
330
1F
100
AcDbEntity
  8
0
  6
Continuous
 62
     7
370
    18
100
AcDbSpline
210
0.0
220
0.0
230
1.0
 70
     8
 71
     3
 72
    10
 73
     6
 74
     0
 42
0.0000000001
 43
0.0000000001
 40
0.0
 40
0.0
 40
0.0
 40
0.0
 40
0.5
 40
0.5
 40
1.0
 40
1.0
 40
1.0
 40
1.0
 10
68.37065829255495
 20
23.32240073558789
 30
0.0
 10
68.36903513635061
 20
23.31703384719684
 30
0.0
 10
68.36741198014625
 20
23.31166907044719
 30
0.0
 10
68.36416566773753
 20
23.30175235377166
 30
0.0
 10
68.36254251153319
 20
23.29720431565033
 30
0.0
 10
68.36091935532883
 20
23.29340935247515
 30
0.0
  0
LINE
  5
3C9
330
1F
100
AcDbEntity
  8
0
  6
Continuous
 62
     7
370
    18
100
AcDbLine
 10
68.49944259539895
 20
23.33913749282128
 30
0.0
 11
68.49944259539895
 21
24.33913330078437
 31
0.0
  0
LINE
  5
3CA
330
1F
100
AcDbEntity
  8
0
  6
Continuous
 62
     7
370
    18
100
AcDbLine
 10
68.56194064674944
 20
23.33913749282128
 30
0.0
 11
68.56194064674946
 21
24.33913330078437
 31
0.0
  0
LINE
  5
3CD
330
1F
100
AcDbEntity
  8
0
  6
Continuous
 62
     7
370
    18
100
AcDbLine
 10
68.56194064674937
 20
23.30937858326544
 30
0.0
 11
68.56194064674937
 21
23.31110219002086
 31
0.0
  0
LINE
  5
3CE
330
1F
100
AcDbEntity
  8
0
  6
Continuous
 62
     7
370
    18
100
AcDbLine
 10
68.56194064674939
 20
23.3148227870402
 30
0.0
 11
68.56194064674941
 21
23.31965686452984
 31
0.0
  0
LINE
  5
3CF
330
1F
100
AcDbEntity
  8
0
  6
Continuous
 62
     7
370
    18
100
AcDbLine
 10
68.49944259539888
 20
23.30937858326544
 30
0.0
 11
68.49944259539888
 21
23.31110219002086
 31
0.0
  0
LINE
  5
3D0
330
1F
100
AcDbEntity
  8
0
  6
Continuous
 62
     7
370
    18
100
AcDbLine
 10
68.49944259539888
 20
23.3148227870402
 30
0.0
 11
68.49944259539888
 21
23.31965686452984
 31
0.0
  0
LINE
  5
3D1
330
1F
100
AcDbEntity
  8
0
  6
Continuous
 62
     7
370
    18
100
AcDbLine
 10
68.56194064674937
 20
23.30937858326544
 30
0.0
 11
68.49944259539888
 21
23.30937858326544
 31
0.0
  0
LINE
  5
3D2
330
1F
100
AcDbEntity
  8
0
  6
Continuous
 62
     7
370
    18
100
AcDbLine
 10
68.49944259539888
 20
23.31110219002086
 30
0.0
 11
68.56194064674937
 21
23.31110219002086
 31
0.0
  0
LINE
  5
3D3
330
1F
100
AcDbEntity
  8
0
  6
Continuous
 62
     7
370
    18
100
AcDbLine
 10
68.49944259539888
 20
23.3148227870402
 30
0.0
 11
68.56194064674939
 21
23.3148227870402
 31
0.0
  0
LINE
  5
3D4
330
1F
100
AcDbEntity
  8
0
  6
Continuous
 62
     7
370
    18
100
AcDbLine
 10
68.49944259539888
 20
23.31965686452984
 30
0.0
 11
68.56194064674941
 21
23.31965686452984
 31
0.0
  0
LINE
  5
3D5
330
1F
100
AcDbEntity
  8
0
  6
Continuous
 62
     7
370
    18
100
AcDbLine
 10
68.56194064674941
 20
23.32337628822941
 30
0.0
 11
68.56194064674942
 21
23.32532986566151
 31
0.0
  0
LINE
  5
3D6
330
1F
100
AcDbEntity
  8
0
  6
Continuous
 62
     7
370
    18
100
AcDbLine
 10
68.56194064674943
 20
23.32905046268085
 30
0.0
 11
68.56194064674943
 21
23.3338845401705
 31
0.0
  0
LINE
  5
3D7
330
1F
100
AcDbEntity
  8
0
  6
Continuous
 62
     7
370
    18
100
AcDbLine
 10
68.56194064674944
 20
23.33760513718985
 30
0.0
 11
68.56194064674944
 21
23.33913749282128
 31
0.0
  0
LINE
  5
3D8
330
1F
100
AcDbEntity
  8
0
  6
Continuous
 62
     7
370
    18
100
AcDbLine
 10
68.4994425953989
 20
23.32337628822941
 30
0.0
 11
68.4994425953989
 21
23.32532986566151
 31
0.0
  0
LINE
  5
3D9
330
1F
100
AcDbEntity
  8
0
  6
Continuous
 62
     7
370
    18
100
AcDbLine
 10
68.49944259539892
 20
23.32905046268085
 30
0.0
 11
68.49944259539893
 21
23.3338845401705
 31
0.0
  0
LINE
  5
3DA
330
1F
100
AcDbEntity
  8
0
  6
Continuous
 62
     7
370
    18
100
AcDbLine
 10
68.49944259539893
 20
23.33760513718985
 30
0.0
 11
68.49944259539895
 21
23.33913749282128
 31
0.0
  0
LINE
  5
3DB
330
1F
100
AcDbEntity
  8
0
  6
Continuous
 62
     7
370
    18
100
AcDbLine
 10
68.4594417774918
 20
23.322401259493
 30
0.0
 11
68.4594417774918
 21
23.38966181582665
 31
0.0
  0
LINE
  5
3DC
330
1F
100
AcDbEntity
  8
0
  6
Continuous
 62
     7
370
    18
100
AcDbLine
 10
68.41944095958466
 20
23.322401259493
 30
0.0
 11
68.41944095958466
 21
23.3704944639162
 31
0.0
  0
LINE
  5
3DD
330
1F
100
AcDbEntity
  8
0
  6
Continuous
 62
     7
370
    18
100
AcDbLine
 10
68.4994425953989
 20
23.32337628822941
 30
0.0
 11
68.56194064674941
 21
23.32337628822941
 31
0.0
  0
LINE
  5
3DE
330
1F
100
AcDbEntity
  8
0
  6
Continuous
 62
     7
370
    18
100
AcDbLine
 10
68.4994425953989
 20
23.32532986566151
 30
0.0
 11
68.56194064674942
 21
23.32532986566151
 31
0.0
  0
LINE
  5
3DF
330
1F
100
AcDbEntity
  8
0
  6
Continuous
 62
     7
370
    18
100
AcDbLine
 10
68.49944259539892
 20
23.32905046268085
 30
0.0
 11
68.56194064674943
 21
23.32905046268085
 31
0.0
  0
LINE
  5
3E0
330
1F
100
AcDbEntity
  8
0
  6
Continuous
 62
     7
370
    18
100
AcDbLine
 10
68.49944259539893
 20
23.3338845401705
 30
0.0
 11
68.56194064674943
 21
23.3338845401705
 31
0.0
  0
LINE
  5
3E1
330
1F
100
AcDbEntity
  8
0
  6
Continuous
 62
     7
370
    18
100
AcDbLine
 10
68.49944259539893
 20
23.33760513718985
 30
0.0
 11
68.56194064674944
 21
23.33760513718985
 31
0.0
  0
LINE
  5
3E2
330
1F
100
AcDbEntity
  8
0
  6
Continuous
 62
     7
370
    18
100
AcDbLine
 10
68.56194064674944
 20
23.33913749282128
 30
0.0
 11
68.49944259539895
 21
23.33913749282128
 31
0.0
  0
LINE
  5
3E3
330
1F
100
AcDbEntity
  8
0
  6
Continuous
 62
     7
370
    18
100
AcDbLine
 10
68.37065901645117
 20
23.28140077313412
 30
0.0
 11
68.41844129113292
 21
23.28140077313412
 31
0.0
  0
LINE
  5
3E4
330
1F
100
AcDbEntity
  8
0
  6
Continuous
 62
     7
370
    18
100
AcDbLine
 10
68.37065901645117
 20
23.32140041772148
 30
0.0
 11
68.41844129113292
 21
23.32140041772149
 31
0.0
  0
LINE
  5
3E5
330
1F
100
AcDbEntity
  8
0
  6
Continuous
 62
     7
370
    18
100
AcDbLine
 10
68.41844129113292
 20
23.37018353417475
 30
0.0
 11
68.37065901645117
 21
23.322401259493
 31
0.0
  0
MTEXT
  5
532
330
1F
100
AcDbEntity
  8
0
  6
Continuous
 62
     0
370
    18
100
AcDbMText
 10
0.4313329478211472
 20
39.18143182581218
 30
0.0
 40
2.381249999999999
 41
0.0
 71
     1
 72
     1
  1
{\fVerdana|b0|i0|c0|p34;AIRFLOW}
  7
SLDTEXTSTYLE0
 73
     1
 44
1.0
  0
ENDSEC
  0
SECTION
  2
OBJECTS
  0
DICTIONARY
  5
C
330
0
100
AcDbDictionary
281
     1
  3
ACAD_GROUP
350
D
  3
ACAD_LAYOUT
350
1A
  3
ACAD_MLEADERSTYLE
350
265
  3
ACAD_MLINESTYLE
350
17
  3
ACAD_PLOTSETTINGS
350
19
  3
ACAD_PLOTSTYLENAME
350
E
  3
ACAD_SCALELIST
350
3B
  3
ACAD_TABLESTYLE
350
264
  3
ACAD_VISUALSTYLE
350
2A
  3
AcDbVariableDictionary
350
262
  3
ASE_INDEX_DICTIONARY
350
2B0
  0
DICTIONARY
  5
D
102
{ACAD_REACTORS
330
C
102
}
330
C
100
AcDbDictionary
281
     1
  0
DICTIONARY
  5
1A
102
{ACAD_REACTORS
330
C
102
}
330
C
100
AcDbDictionary
281
     1
  3
Layout1
350
1E
  3
Layout2
350
26
  3
Model
350
22
  0
DICTIONARY
  5
265
102
{ACAD_REACTORS
330
C
102
}
330
C
100
AcDbDictionary
281
     1
  0
DICTIONARY
  5
17
102
{ACAD_REACTORS
330
C
102
}
330
C
100
AcDbDictionary
281
     1
  3
Standard
350
18
  0
DICTIONARY
  5
19
102
{ACAD_REACTORS
330
C
102
}
330
C
100
AcDbDictionary
281
     1
  0
ACDBDICTIONARYWDFLT
  5
E
102
{ACAD_REACTORS
330
C
102
}
330
C
100
AcDbDictionary
281
     1
  3
Normal
350
F
100
AcDbDictionaryWithDefault
340
F
  0
DICTIONARY
  5
3B
102
{ACAD_REACTORS
330
C
102
}
330
C
100
AcDbDictionary
281
     1
  3
A0
350
3C
  3
A1
350
3D
  3
A2
350
3E
  3
A3
350
3F
  3
A4
350
40
  3
A5
350
41
  3
A6
350
42
  3
A7
350
43
  3
A8
350
44
  3
A9
350
45
  3
B0
350
46
  3
B1
350
47
  3
B2
350
48
  3
B3
350
49
  3
B4
350
4A
  3
B5
350
4B
  3
B6
350
4C
  3
B7
350
4D
  3
B8
350
4E
  3
B9
350
4F
  3
C0
350
50
  3
C1
350
51
  3
C2
350
52
  3
C3
350
53
  3
C4
350
54
  3
C5
350
55
  3
C6
350
56
  3
C7
350
57
  3
C8
350
58
  3
C9
350
59
  3
D0
350
5A
  3
D1
350
5B
  3
D2
350
5C
  0
DICTIONARY
  5
264
102
{ACAD_REACTORS
330
C
102
}
330
C
100
AcDbDictionary
281
     1
  0
DICTIONARY
  5
2A
102
{ACAD_REACTORS
330
C
102
}
330
C
100
AcDbDictionary
281
     1
  3
2dWireframe
350
2F
  3
3D Hidden
350
31
  3
3dWireframe
350
30
  3
Basic
350
32
  3
Brighten
350
36
  3
ColorChange
350
3A
  3
Conceptual
350
34
  3
Dim
350
35
  3
Facepattern
350
39
  3
Flat
350
2B
  3
FlatWithEdges
350
2C
  3
Gouraud
350
2D
  3
GouraudWithEdges
350
2E
  3
Linepattern
350
38
  3
Realistic
350
33
  3
Thicken
350
37
  0
DICTIONARY
  5
262
102
{ACAD_REACTORS
330
C
102
}
330
C
100
AcDbDictionary
281
     1
  3
CANNOSCALE
350
263
  0
DICTIONARY
  5
2B0
102
{ACAD_REACTORS
330
C
102
}
330
C
100
AcDbDictionary
281
     1
  3
ASEBlockHierarchyIndexRecord
350
2B2
1001
DCO15
1040
1633941097.015
  0
LAYOUT
  5
1E
102
{ACAD_REACTORS
330
1A
102
}
330
1A
100
AcDbPlotSettings
  1

  2
none_device
  4

  6

 40
0.0
 41
0.0
 42
0.0
 43
0.0
 44
0.0
 45
0.0
 46
0.0
 47
0.0
 48
0.0
 49
0.0
140
0.0
141
0.0
142
1.0
143
1.0
 70
   688
 72
     0
 73
     0
 74
     5
  7

 75
    16
147
1.0
148
0.0
149
0.0
100
AcDbLayout
  1
Layout1
 70
     1
 71
     1
 10
0.0
 20
0.0
 11
12.0
 21
9.0
 12
0.0
 22
0.0
 32
0.0
 14
1.000000000000000E+20
 24
1.000000000000000E+20
 34
1.000000000000000E+20
 15
-1.000000000000000E+20
 25
-1.000000000000000E+20
 35
-1.000000000000000E+20
146
0.0
 13
0.0
 23
0.0
 33
0.0
 16
1.0
 26
0.0
 36
0.0
 17
0.0
 27
1.0
 37
0.0
 76
     0
330
1B
  0
LAYOUT
  5
26
102
{ACAD_REACTORS
330
1A
102
}
330
1A
100
AcDbPlotSettings
  1

  2
none_device
  4

  6

 40
0.0
 41
0.0
 42
0.0
 43
0.0
 44
0.0
 45
0.0
 46
0.0
 47
0.0
 48
0.0
 49
0.0
140
0.0
141
0.0
142
1.0
143
1.0
 70
   688
 72
     0
 73
     0
 74
     5
  7

 75
    16
147
1.0
148
0.0
149
0.0
100
AcDbLayout
  1
Layout2
 70
     1
 71
     2
 10
0.0
 20
0.0
 11
0.0
 21
0.0
 12
0.0
 22
0.0
 32
0.0
 14
0.0
 24
0.0
 34
0.0
 15
0.0
 25
0.0
 35
0.0
146
0.0
 13
0.0
 23
0.0
 33
0.0
 16
1.0
 26
0.0
 36
0.0
 17
0.0
 27
1.0
 37
0.0
 76
     0
330
23
  0
LAYOUT
  5
22
102
{ACAD_REACTORS
330
1A
102
}
330
1A
100
AcDbPlotSettings
  1

  2
none_device
  4

  6

 40
0.0
 41
0.0
 42
0.0
 43
0.0
 44
0.0
 45
0.0
 46
0.0
 47
0.0
 48
0.0
 49
0.0
140
0.0
141
0.0
142
1.0
143
1.0
 70
  1712
 72
     0
 73
     0
 74
     0
  7

 75
     0
147
1.0
148
0.0
149
0.0
100
AcDbLayout
  1
Model
 70
     1
 71
     0
 10
0.0
 20
0.0
 11
11.0
 21
8.5
 12
0.0
 22
0.0
 32
0.0
 14
0.0
 24
0.0
 34
0.0
 15
11.0
 25
8.5
 35
0.0
146
0.0
 13
0.0
 23
0.0
 33
0.0
 16
1.0
 26
0.0
 36
0.0
 17
0.0
 27
1.0
 37
0.0
 76
     0
330
1F
  0
MLINESTYLE
  5
18
102
{ACAD_REACTORS
330
17
102
}
330
17
100
AcDbMlineStyle
  2
STANDARD
 70
     0
  3

 62
   256
 51
90.0
 52
90.0
 71
     2
 49
0.5
 62
   256
  6
BYLAYER
 49
-0.5
 62
   256
  6
BYLAYER
  0
ACDBPLACEHOLDER
  5
F
102
{ACAD_REACTORS
330
E
102
}
330
E
  0
ACAD_PROXY_OBJECT
  5
3C
102
{ACAD_REACTORS
330
3B
102
}
330
3B
100
AcDbProxyObject
 90
      499
 91
      502
 95
   393239
 70
     0
 93
       41
310
903313A31581
 94
        0
  0
ACAD_PROXY_OBJECT
  5
3D
102
{ACAD_REACTORS
330
3B
102
}
330
3B
100
AcDbProxyObject
 90
      499
 91
      502
 95
   393239
 70
     0
 93
      105
310
903313A324000000000000004040
 94
        0
  0
ACAD_PROXY_OBJECT
  5
3E
102
{ACAD_REACTORS
330
3B
102
}
330
3B
100
AcDbProxyObject
 90
      499
 91
      502
 95
   393239
 70
     0
 93
      105
310
903313A344000000000000104040
 94
        0
  0
ACAD_PROXY_OBJECT
  5
3F
102
{ACAD_REACTORS
330
3B
102
}
330
3B
100
AcDbProxyObject
 90
      499
 91
      502
 95
   393239
 70
     0
 93
      105
310
903313A354000000000000144040
 94
        0
  0
ACAD_PROXY_OBJECT
  5
40
102
{ACAD_REACTORS
330
3B
102
}
330
3B
100
AcDbProxyObject
 90
      499
 91
      502
 95
   393239
 70
     0
 93
      105
310
903313A384000000000000204040
 94
        0
  0
ACAD_PROXY_OBJECT
  5
41
102
{ACAD_REACTORS
330
3B
102
}
330
3B
100
AcDbProxyObject
 90
      499
 91
      502
 95
   393239
 70
     0
 93
      113
310
904313A31304000000000000244000
 94
        0
  0
ACAD_PROXY_OBJECT
  5
42
102
{ACAD_REACTORS
330
3B
102
}
330
3B
100
AcDbProxyObject
 90
      499
 91
      502
 95
   393239
 70
     0
 93
      113
310
904313A31364000000000000304000
 94
        0
  0
ACAD_PROXY_OBJECT
  5
43
102
{ACAD_REACTORS
330
3B
102
}
330
3B
100
AcDbProxyObject
 90
      499
 91
      502
 95
   393239
 70
     0
 93
      113
310
904313A32304000000000000344000
 94
        0
  0
ACAD_PROXY_OBJECT
  5
44
102
{ACAD_REACTORS
330
3B
102
}
330
3B
100
AcDbProxyObject
 90
      499
 91
      502
 95
   393239
 70
     0
 93
      113
310
904313A333040000000000003E4000
 94
        0
  0
ACAD_PROXY_OBJECT
  5
45
102
{ACAD_REACTORS
330
3B
102
}
330
3B
100
AcDbProxyObject
 90
      499
 91
      502
 95
   393239
 70
     0
 93
      113
310
904313A34304000000000000444040
 94
        0
  0
ACAD_PROXY_OBJECT
  5
46
102
{ACAD_REACTORS
330
3B
102
}
330
3B
100
AcDbProxyObject
 90
      499
 91
      502
 95
   393239
 70
     0
 93
      113
310
904313A35304000000000000494000
 94
        0
  0
ACAD_PROXY_OBJECT
  5
47
102
{ACAD_REACTORS
330
3B
102
}
330
3B
100
AcDbProxyObject
 90
      499
 91
      502
 95
   393239
 70
     0
 93
      121
310
905313A3130304000000000000594000
 94
        0
  0
ACAD_PROXY_OBJECT
  5
48
102
{ACAD_REACTORS
330
3B
102
}
330
3B
100
AcDbProxyObject
 90
      499
 91
      502
 95
   393239
 70
     0
 93
      105
310
903323A310000000000000010159
 94
        0
  0
ACAD_PROXY_OBJECT
  5
49
102
{ACAD_REACTORS
330
3B
102
}
330
3B
100
AcDbProxyObject
 90
      499
 91
      502
 95
   393239
 70
     0
 93
      105
310
903343A310000000000000410159
 94
        0
  0
ACAD_PROXY_OBJECT
  5
4A
102
{ACAD_REACTORS
330
3B
102
}
330
3B
100
AcDbProxyObject
 90
      499
 91
      502
 95
   393239
 70
     0
 93
      105
310
903383A310000000000000810159
 94
        0
  0
ACAD_PROXY_OBJECT
  5
4B
102
{ACAD_REACTORS
330
3B
102
}
330
3B
100
AcDbProxyObject
 90
      499
 91
      502
 95
   393239
 70
     0
 93
      113
310
90431303A310000000000000910140
 94
        0
  0
ACAD_PROXY_OBJECT
  5
4C
102
{ACAD_REACTORS
330
3B
102
}
330
3B
100
AcDbProxyObject
 90
      499
 91
      502
 95
   393239
 70
     0
 93
      121
310
9053130303A310000000000001650100
 94
        0
  0
ACAD_PROXY_OBJECT
  5
4D
102
{ACAD_REACTORS
330
3B
102
}
330
3B
100
AcDbProxyObject
 90
      499
 91
      502
 95
   393239
 70
     0
 93
      257
310
90E312F31323822203D2031272D3022000000000000200FC000000000000284000
 94
        0
  0
ACAD_PROXY_OBJECT
  5
4E
102
{ACAD_REACTORS
330
3B
102
}
330
3B
100
AcDbProxyObject
 90
      499
 91
      502
 95
   393239
 70
     0
 93
      249
310
90D312F363422203D2031272D3022000000000000240FC000000000000284040
 94
        0
  0
ACAD_PROXY_OBJECT
  5
4F
102
{ACAD_REACTORS
330
3B
102
}
330
3B
100
AcDbProxyObject
 90
      499
 91
      502
 95
   393239
 70
     0
 93
      249
310
90D312F333222203D2031272D3022000000000000280FC000000000000284040
 94
        0
  0
ACAD_PROXY_OBJECT
  5
50
102
{ACAD_REACTORS
330
3B
102
}
330
3B
100
AcDbProxyObject
 90
      499
 91
      502
 95
   393239
 70
     0
 93
      249
310
90D312F313622203D2031272D30220000000000002C0FC000000000000284040
 94
        0
  0
ACAD_PROXY_OBJECT
  5
51
102
{ACAD_REACTORS
330
3B
102
}
330
3B
100
AcDbProxyObject
 90
      499
 91
      502
 95
   393239
 70
     0
 93
      249
310
90D332F333222203D2031272D30220000000000002E0FC000000000000284040
 94
        0
  0
ACAD_PROXY_OBJECT
  5
52
102
{ACAD_REACTORS
330
3B
102
}
330
3B
100
AcDbProxyObject
 90
      499
 91
      502
 95
   393239
 70
     0
 93
      241
310
90C312F3822203D2031272D3022000000000000300FC000000000000284000
 94
        0
  0
ACAD_PROXY_OBJECT
  5
53
102
{ACAD_REACTORS
330
3B
102
}
330
3B
100
AcDbProxyObject
 90
      499
 91
      502
 95
   393239
 70
     0
 93
      249
310
90D332F313622203D2031272D3022000000000000320FC000000000000284000
 94
        0
  0
ACAD_PROXY_OBJECT
  5
54
102
{ACAD_REACTORS
330
3B
102
}
330
3B
100
AcDbProxyObject
 90
      499
 91
      502
 95
   393239
 70
     0
 93
      241
310
90C312F3422203D2031272D3022000000000000340FC000000000000284040
 94
        0
  0
ACAD_PROXY_OBJECT
  5
55
102
{ACAD_REACTORS
330
3B
102
}
330
3B
100
AcDbProxyObject
 90
      499
 91
      502
 95
   393239
 70
     0
 93
      241
310
90C332F3822203D2031272D3022000000000000360FC000000000000284040
 94
        0
  0
ACAD_PROXY_OBJECT
  5
56
102
{ACAD_REACTORS
330
3B
102
}
330
3B
100
AcDbProxyObject
 90
      499
 91
      502
 95
   393239
 70
     0
 93
      241
310
90C312F3222203D2031272D3022000000000000380FC000000000000284040
 94
        0
  0
ACAD_PROXY_OBJECT
  5
57
102
{ACAD_REACTORS
330
3B
102
}
330
3B
100
AcDbProxyObject
 90
      499
 91
      502
 95
   393239
 70
     0
 93
      241
310
90C332F3422203D2031272D30220000000000003A0FC000000000000284040
 94
        0
  0
ACAD_PROXY_OBJECT
  5
58
102
{ACAD_REACTORS
330
3B
102
}
330
3B
100
AcDbProxyObject
 90
      499
 91
      502
 95
   393239
 70
     0
 93
      161
310
90A3122203D2031272D30224000000000000284020
 94
        0
  0
ACAD_PROXY_OBJECT
  5
59
102
{ACAD_REACTORS
330
3B
102
}
330
3B
100
AcDbProxyObject
 90
      499
 91
      502
 95
   393239
 70
     0
 93
      257
310
90E312D312F3222203D2031272D30220000000000003E0FC000000000000284000
 94
        0
  0
ACAD_PROXY_OBJECT
  5
5A
102
{ACAD_REACTORS
330
3B
102
}
330
3B
100
AcDbProxyObject
 90
      499
 91
      502
 95
   393239
 70
     0
 93
      225
310
90A3322203D2031272D302200000000000002100000000000000284000
 94
        0
  0
ACAD_PROXY_OBJECT
  5
5B
102
{ACAD_REACTORS
330
3B
102
}
330
3B
100
AcDbProxyObject
 90
      499
 91
      502
 95
   393239
 70
     0
 93
      225
310
90A3622203D2031272D302200000000000006100000000000000284000
 94
        0
  0
ACAD_PROXY_OBJECT
  5
5C
102
{ACAD_REACTORS
330
3B
102
}
330
3B
100
AcDbProxyObject
 90
      499
 91
      502
 95
   393239
 70
     0
 93
      249
310
90D31272D3022203D2031272D30220000000000000A100000000000000284040
 94
        0
  0
ACAD_PROXY_OBJECT
  5
2F
102
{ACAD_REACTORS
330
2A
102
}
330
2A
100
AcDbProxyObject
 90
      499
 91
      501
 95
   393239
 70
     0
 93
      436
310
42CC9915DA5C99599C985B595049028333333333333E3BF0000000000000FB0107901411070040501600405405064090741402480A0340
 94
        0
1001
ACAD
1000
AcDbSavedByObjectVersion
1070
     0
  0
ACAD_PROXY_OBJECT
  5
31
102
{ACAD_REACTORS
330
2A
102
}
330
2A
100
AcDbProxyObject
 90
      499
 91
      501
 95
   393239
 70
     0
 93
      500
310
424CD108121A5919195B90640502408333333333333E3BF0000000000000FB01079024090700405020000000000001110200405405064090740C02480A0340
 94
        0
1001
ACAD
1000
AcDbSavedByObjectVersion
1070
     0
  0
ACAD_PROXY_OBJECT
  5
30
102
{ACAD_REACTORS
330
2A
102
}
330
2A
100
AcDbProxyObject
 90
      499
 91
      501
 95
   393239
 70
     0
 93
      436
310
42CCD915DA5C99599C985B595059028333333333333E3BF0000000000000FB0107901411070040501600405405064090741402480A0340
 94
        0
1001
ACAD
1000
AcDbSavedByObjectVersion
1070
     0
  0
ACAD_PROXY_OBJECT
  5
32
102
{ACAD_REACTORS
330
2A
102
}
330
2A
100
AcDbProxyObject
 90
      499
 91
      501
 95
   393239
 70
     0
 93
      388
310
4150985CDA58D07406404333333333333E3BF0000000000000FB0107A41107004050150841D405064090741402480A0354
 94
        0
1001
ACAD
1000
AcDbSavedByObjectVersion
1070
     0
  0
ACAD_PROXY_OBJECT
  5
36
102
{ACAD_REACTORS
330
2A
102
}
330
2A
100
AcDbProxyObject
 90
      499
 91
      501
 95
   393239
 70
     0
 93
      428
310
42109C9A59DA1D195B90C409028333333333333E3BF0000000000000FB010790141107004050150841D405064090741402480A029956
 94
        0
1001
ACAD
1000
AcDbSavedByObjectVersion
1070
     0
  0
ACAD_PROXY_OBJECT
  5
3A
102
{ACAD_REACTORS
330
2A
102
}
330
2A
100
AcDbProxyObject
 90
      499
 91
      501
 95
   393239
 70
     0
 93
      452
310
42D0DBDB1BDC90DA185B99D95104090240C333333333333E3BF0000000000000FB0108901411070040501508421405064090741402480A0354
 94
        0
1001
ACAD
1000
AcDbSavedByObjectVersion
1070
     0
  0
ACAD_PROXY_OBJECT
  5
34
102
{ACAD_REACTORS
330
2A
102
}
330
2A
100
AcDbProxyObject
 90
      499
 91
      501
 95
   393239
 70
     0
 93
      500
310
4290DBDB98D95C1D1D585B10940D028333333333333E3BF0000000000000FB0107902409070040501000000000000111010841D405064090740C02480A0340
 94
        0
1001
ACAD
1000
AcDbSavedByObjectVersion
1070
     0
  0
ACAD_PROXY_OBJECT
  5
35
102
{ACAD_REACTORS
330
2A
102
}
330
2A
100
AcDbProxyObject
 90
      499
 91
      501
 95
   393239
 70
     0
 93
      412
310
40D11A5B50B409028333333333333E3BF0000000000000FB010790141107004050150841D405064090741402480A02677FFFFFDB
 94
        0
1001
ACAD
1000
AcDbSavedByObjectVersion
1070
     0
  0
ACAD_PROXY_OBJECT
  5
39
102
{ACAD_REACTORS
330
2A
102
}
330
2A
100
AcDbProxyObject
 90
      499
 91
      501
 95
   393239
 70
     0
 93
      444
310
42D19858D95C185D1D195C9B90F409028333333333333E3BF0000000000000FB010790141107004050150841D405064090741402480A0350
 94
        0
1001
ACAD
1000
AcDbSavedByObjectVersion
1070
     0
  0
ACAD_PROXY_OBJECT
  5
2B
102
{ACAD_REACTORS
330
2A
102
}
330
2A
100
AcDbProxyObject
 90
      499
 91
      501
 95
   393239
 70
     0
 93
      388
310
41119B185D240901404333333333333E3BF0000000000000F9010740A41107004050150841D405064090741402480A1B55
 94
        0
1001
ACAD
1000
AcDbSavedByObjectVersion
1070
     0
  0
ACAD_PROXY_OBJECT
  5
2C
102
{ACAD_REACTORS
330
2A
102
}
330
2A
100
AcDbProxyObject
 90
      499
 91
      501
 95
   393239
 70
     0
 93
      476
310
43519B185D15DA5D1A115919D95CD0140901404333333333333E3BF0000000000000F9010740901411070040501600405405064090741402480A1B50
 94
        0
1001
ACAD
1000
AcDbSavedByObjectVersion
1070
     0
  0
ACAD_PROXY_OBJECT
  5
2D
102
{ACAD_REACTORS
330
2A
102
}
330
2A
100
AcDbProxyObject
 90
      499
 91
      501
 95
   393239
 70
     0
 93
      412
310
41D1DBDD5C985D5910240902404333333333333E3BF0000000000000F9010740A411070040501641D405064090741402480A1B50
 94
        0
1001
ACAD
1000
AcDbSavedByObjectVersion
1070
     0
  0
ACAD_PROXY_OBJECT
  5
2E
102
{ACAD_REACTORS
330
2A
102
}
330
2A
100
AcDbProxyObject
 90
      499
 91
      501
 95
   393239
 70
     0
 93
      500
310
4411DBDD5C985D5915DA5D1A115919D95CD0340902404333333333333E3BF0000000000000F9010740901411070040501600405405064090741402480A1B50
 94
        0
1001
ACAD
1000
AcDbSavedByObjectVersion
1070
     0
  0
ACAD_PROXY_OBJECT
  5
38
102
{ACAD_REACTORS
330
2A
102
}
330
2A
100
AcDbProxyObject
 90
      499
 91
      501
 95
   393239
 70
     0
 93
      444
310
42D31A5B995C185D1D195C9B90E409028333333333333E3BF0000000000000FB010790141107004050750841D405064090741402483A0350
 94
        0
1001
ACAD
1000
AcDbSavedByObjectVersion
1070
     0
  0
ACAD_PROXY_OBJECT
  5
33
102
{ACAD_REACTORS
330
2A
102
}
330
2A
100
AcDbProxyObject
 90
      499
 91
      501
 95
   393239
 70
     0
 93
      420
310
425499585B1A5CDD1A58D08409028333333333333E3BF0000000000000FB01079019070040501508421405064090741402480A1B45
 94
        0
1001
ACAD
1000
AcDbSavedByObjectVersion
1070
     0
  0
ACAD_PROXY_OBJECT
  5
37
102
{ACAD_REACTORS
330
2A
102
}
330
2A
100
AcDbProxyObject
 90
      499
 91
      501
 95
   393239
 70
     0
 93
      412
310
41D51A1A58DAD95B90D409028333333333333E3BF0000000000000FB010790141107004050150C41D405064090741402480A035B
 94
        0
1001
ACAD
1000
AcDbSavedByObjectVersion
1070
     0
  0
DICTIONARYVAR
  5
263
102
{ACAD_REACTORS
330
262
102
}
330
262
100
DictionaryVariables
280
     0
  1
1:1
  0
XRECORD
  5
2B2
102
{ACAD_REACTORS
330
2B0
102
}
330
2B0
100
AcDbXrecord
280
     1
330
0
330
0
  0
ENDSEC
  0
EOF
